Van Halen - Cathedral tab

Band: Van Halen
Song: Cathedral
Album: Diver Down
Year: 1982
Tuning: Standard

Note: The organ effect in this song is achieved by using your pinky finger to swell the 
knob for each note... This is very tricky to do so feel free to use a volume pedal or 
other effect to automatically swell the notes...

4/4 Time
e|--------|-1------|-------------|--------|--------|-1------|-------------|--------|
B|-5------|-1------|-5-----------|-5------|-5------|-1------|-5-----------|--------|
G|-4------|-2------|-4-----5-----|-4------|-4------|-2------|-4-----5-----|-4------|
D|-5------|-3------|-5-----5-----|-4------|-5------|-3------|-5-----5-----|-4------|
A|-3------|-3------|-5-----3-----|-2------|-3------|-3------|-5-----3-----|-2------|
E|-3------|--------|-3-----------|--------|-3------|--------|-3-----------|--------|

e|-----------------------------------------------|-----------------------------------------------|
B|-----------------4--------4--------------------|-------------------8--------8------------------|
G|-----------4--------4--4--------4--------------|-------------8--------8--8--------8------------|
D|-----4--------4--------------4--------4--------|-------8--------8--------------8--------8------|
A|-2------2--------------------------2-----4--2--|-6--4-----6--------------------------6-----8--6|
E|-----------------------------------------------|-----------------------------------------------|

e|-------------------------------------------------|
B|-------------------12-------12-------------------|
G|-------------12-------12-12-------12-------------|
D|-------12-------12-------------12-------12-------|
A|-10-8-----10-------------------------10----12-10-|
E|-------------------------------------------------|

e|-------------------------------------------------|
B|-------------------16-------16-------------------|
G|-------------16-------16-16-------16-------------|
D|-------16-------16-------------16-------16-------|
A|-14-12----14-------------------------14----12-14-|
E|-------------------------------------------------|

3/4 Time
e|-------------------------------------|-------------------------------------|
B|-------------------12-------12-------|-------------------7--------7--------|
G|-------------12-------12-12-------12-|-------------7--------7--7--------7--|
D|-------12-------12-------------12----|----7--7--------7--------------7-----|
A|-10-12----12-------------------------|-5--------5--------------------------|
E|-------------------------------------|-------------------------------------|

e|-------------------------------------|-------------------------------------|
B|-------------------10-------10-------|-------------------5--------5--------|
G|-------------10-------10-10-------10-|----5--------5--------5--5--------5--|
D|----7--10-------10-------------10----|-------5--------5--------------5-----|
A|-8--------8--------------------------|-3--------3--------------------------|
E|-------------------------------------|-------------------------------------|

5/4 Time
e|-------------------------------------------------------------|
B|-3--------3--------3--------3--------------------------------|
G|-------4--------4--------4--------4--------------------------|
D|----5--------5--------5--------5-----3--5--5--3-----5--------|
A|-------------------------------------------------3-----5--3--|
E|-------------------------------------------------------------|

4/4 Time
e|------------------------------------------------|----------------------------------------------|
B|------------------4--------4--------------------|------------------8--------8------------------|
G|------------4--------4--4--------4--------------|------------8--------8--8--------8------------|
D|------4--------4--------------4--------4--------|------8--------8--------------8--------8------|
A|2--5-----2--------------------------2-----4--2--|6--4-----6--------------------------6-----8--6|
E|------------------------------------------------|----------------------------------------------|

						3/4 Time
e|-------------------------------------------------|-------------------------------------|
B|-------------------12-------12-------------------|-------------------16-------16-------|
G|-------------12-------12-12-------12-------------|-------------16-------16-16-------16-|
D|-------12-------12-------------12-------12-------|-------16-------16-------------16----|
A|-10-8-----10-------------------------10----12-10-|-14-12----14-------------------------|
E|-------------------------------------------------|-------------------------------------|

e|-------------------------------------|-------------------------------------|
B|-------------------17-------17-------|-------------------19-------19-------|
G|-------------17-------17-17-------17-|-------------19-------19-19-------19-|
D|----16-17-------17-------------17----|----17-19-------19-------------19----|
A|-15-------15-------------------------|-17-------17-------------------------|
E|-------------------------------------|-------------------------------------|

e|-------------------------------------|
A|-------------------21-------21-------|
D|-------------21-------21-21-------21-|
G|----19-21-------21-------------21----|
B|-19-------19-------------------------|
E|-------------------------------------|

4/4 Time
e|-------------------------------------------------|
B|-21-------21-------21-------21-------21-------21-|
G|-------21-------21-------21-------21-------21----|
D|----21-------21-------21-------21-------21-------|
A|-------------------------------------------------|
E|-------------------------------------------------|

e|-------------------------------------------------|
B|-------21-------21-------21-------21-------------|
G|----21-------21-------21-------21-------21-------|
D|-21-------21-------21-------21-------21-------21-|
A|-------------------------------------------19----|
E|-------------------------------------------------|

e|-------------------------------------------------|
B|-------------------------------------------------|
G|-------------------------------------------------|
D|-------------------------------------------------|
A|-21-19-17-21-19-17-15-19-17-15-14-17-15-14-12-15-|
E|-------------------------------------------------|

e|-------------------------------------------------|
B|-------------------------------------------------|
G|-------------------------------------------------|
D|-------------------------------------------------|
A|-14-12-10-14-12-10-9--12-10-9--7--10-9--7--5--9--|
E|-------------------------------------------------|

e|-------------------------------------------------|
B|-------------------------------------------------|
G|-------------------------------------------------|
D|-------------------------------------------------|
A|-7--5--3--7--5--3--2--5--3--2-----3--------5-----|
E|-------------------------------3-----2--3-----2--|

e|-------------------------------------------------|
B|-------------------------------------------------|
G|-------------------7--------7--------------------|
D|-------------------------7-----5--7--4--5-----4--|
A|-5-----7--5--5--7-----5--------------------7-----|
E|----3--------------------------------------------|

e|-------------------------------------------------|
B|-------------------------------------------------|
G|-------------------------------------------------|
D|-------------------------------------------------|
A|-5--7--7--5--5--7--7--5--5--7-----5--------------|
E|-------------------------------3-----2--3--0--2--|

e||---------------------------------------------------||
B||---------------------------------------------------||
G||*-------------------------------------------------*||
D||*-------------------------------------------------*||
A||--5--7--7--5--5--7--7--5--5--7--7--5--5--7--7--5---||
E||---------------------------------------------------||

e|-------------------------------------------------|--------|
B|-------------------------------------------------|--------|
G|-------------------------------------------------|--------|
D|-------------------------------------------------|--------|
A|-5--7--7--5--5--7--7--5--5--7--7--5--5--7--7--5--|-7------|
E|-------------------------------------------------|--------|
Tap to rate this tab
 
# A B C D E F G H I J K L M N O P Q R S T U V W X Y Z