Van Halen - Little Guitars tab

Little Guitars Intro
Van Halen
Submited by: Dagoostahoss10

NOTE: This song is difficult at first but after a few tries and some serious 
concentration, this can be played very easily. Also please disregard any mistakes 
knowing that this 
is my first submitted tab.


---0------0-------------0-----------------0---0---------12----------------0-----|
---0---------0-------------0--------------0------0----------0-------------0-----|
---11-----------11------------11--11--13--13--------13--------------------9-----|
---12---------------12------------12--14--14-----------------------7--10--10----|
---12-----------------------------12--14--14-----------------------7--10--10----|
---0--------------------------------------0--------------------12---------0-----|



0------------0-----------0--------0--------|
---0------------0-----0-----0-----0--------|
------9------------9--7--------7--9--7--6--|
---------10-----------9-----------9--7--7--|
----------------------9-----------0-----0--|
----------------------------------------0--|


* - pick as fast as possible,while fretting the lower notes.
0-------------------------------------------------------------------------------|
--------------------------------------------------------------------------------|
--------------------------------------------------------------------------------|
--------------------------------------------------------------------------------|
--------------------------------------------------------------------------------|
----h0-----4-----7-----8/12-----12-----10-----8-----7-----------0-----4---------|



--------------------------------------------------------------------------------|
--------------------------------------------------------------------------------|
--------------------------------------------------------------------------------|
---------------------------9----------------------------------------------------|
-----------------------10-------------------------------------------------------|
7-----8-----10-----12------------0-----4--7-----8/12--------12-----10-----8-----|



------------------------------------------------------------|
----------------------------*0------------------------------|
----------------------------------------------*0------------|
------------------------------------------------------------|
------------------------------------------------------------|
---12-----10-----8-----7-----7--------7--8--7--8--8--10--8--|



0---0---------0---0----------------------------0-----------0--------------------|
0------0------0------0---------0------------0-----0-----------0-----------------|
11--------11--9---------9---------9---------0--------0-----------0--------------|
0-------------10-----------10--------10-----3-----------3-----------3-----------|
--------------------------------------------3-----------------------------------|
10------------8-----------------------------1-----------------------------------|



---------0-----------------------------0-----------0-----------------------0----|
------------0--------0--------------0-----0-----------0-------------------------|
------0--------0--------0-----------0--------0-----------0--------------0-------|
---4--------------4--------4--------3-----------3-----------3--------4----------|
2-----------------------------------3-----------------------------2-------------|
------------------------------------1-------------------------------------------|


                                                         harm..
------------------------0-----------0-----------0-----0--------5--|
0--------0-----------------0-----------------0-----0--0--5--7-----|
---0--------0--------5--------5--------5-----7--------6-----------|
------4--------4-----3-----------3--------3--5--------5-----------|
---------------------0-----------------------0--------0-----------|
------------------------------------------------------------------|
Tap to rate this tab
 
# A B C D E F G H I J K L M N O P Q R S T U V W X Y Z