Song name
# A B C D E F G H I J K L M N O P Q R S T U V W X Y Z

Van Halen - Tattoo tab

-------------------------------------------------------------------------------
			     TATOO - VAN HALEN
-------------------------------------------------------------------------------
Tabbed by:GIANTBABYWOLF
Email:

Tuning:E

e|-------------------------------------X-X-X-XXX-XXX-------------------------|
B|-5------ 7--8---  7---8----7-----------------------------------------------|
G|-7b ~~~ -9B-10B ~ 9B--10B--9B 9+ --7H9P9-6-7-6-----------------------------|
D|---------------------------------------------- 757-------------------------|
A|---------------------------------------------------------------------------|
E|---------------------------------------------------------------------------|

e|---------------------------------------------------------------------------|
B|-5-------7--8----10----14-15-14H15P14------2+ DIVE-------------------------|
G|-7~~~ ---9B-10B--12B------------------14-----------------------------------|
D|---------------------------------------------------------------------------|
A|---------------------------------------------------------------------------|
E|---------------------------------------------------------------------------|

e|---------------------------------------------------------------------------|
B|---------------------------------------------------------------------------|
G|---------------------------------------------------------------------------|
D|--7-------- 7-5--------- 7-------  7-5-------------------------------------|
A|--5-7-7-7-7-5-5-5-7-7-7--5-7-7-7 7-5-5-5-7-7-------------------------------|
E|----5-5-5-5-----5-5-5-5----5-5-5-5---- 5-5-5-------------------------------|

e|-----------------------------------------------------------------------------|
B|-----------------------------------------------------------------------------|
G|-----------------------------------------------------------------------------|
D|--10-----------  10 8--------------RE----------------------------------------|
A|--8- 10-10-10-10 8- 8 8-10-10-10---------------------------------------------|
E|-----8- 8- 8--8-------8-8--8--8----------------------------------------------|

e|---------------------------------------------------------------------------|
B|---------------------------------------------------------------------------|
G|---------------------------------------------------------------------------|
D|---------------------------------------------------------------------------|
A|---------------------------------------------------------------------------|
E|---------------------------------------------------------------------------|
Tap to rate this tab
# A B C D E F G H I J K L M N O P Q R S T U V W X Y Z