Song name
# A B C D E F G H I J K L M N O P Q R S T U V W X Y Z

Van Halen - You And Your Blues tab

My first tab, but I couldn't find one for one of the cooler riffs from VH's latest 
"Different Kind of Truth," so I figured it out. Sounds right, though in the video Eddie 
appears to be playing the different voicings of the same chords up at fret 14.

E|-----------------------------------------------|
B|--7--7--7--7--6--6--6--6--4--4--4--4--6--7--6--|
G|--8--8--8--8--6--6--6--6--5--5--5--5--6--6--6--|
D|--8--8--8--8--6--6--6--6--6--6--6--6--6--6--6--|
A|-----------------------------------------------|
E|-----------------------------------------------|

E|--------------------------------------------|
B|--7--7--7--7--6--6--6--6--4--4--4-----------|
G|--8--8--8--8--6--6--6--6--5--5--5--5--5--5--|
D|--8--8--8--8--6--6--6--6--6--6--6--4--6--4--|
A|-----------------------------------4--6--4--|
E|--------------------------------------------|

E|-----------------------------------------------|
B|--7--7--7--7--6--6--6--6--4--4--4--4--6--7--7--|
G|--8--8--8--8--6--6--6--6--5--5--5--5--6--6--6--|
D|--8--8--8--8--6--6--6--6--6--6--6--6--6--6--6--|
A|-----------------------------------------------|
E|-----------------------------------------------|

E|--------------------------------------------|
B|--7--7--7--7--6--6--6--6--4--4--4-----------|
G|--8--8--8--8--6--6--6--6--5--5--5-----------|
D|--8--8--8--8--6--6--6--6--6--6--6--4--6--4--|
A|-----------------------------------4--6--4--|
E|--------------------------------------------|
Tap to rate this tab
# A B C D E F G H I J K L M N O P Q R S T U V W X Y Z