Song name
# A B C D E F G H I J K L M N O P Q R S T U V W X Y Z

Van Halen - Stay Frosty tab

-------------------------------------------------------------------------------
                             STAY FROSTY - Van Halen
-------------------------------------------------------------------------------


Tabbed by: Isaias Garcia (TexasFury)

Tuning: Open C (Dobro) - Drop C (Electric)


ELECTRIC GUITAR

     Intro - m.53                                                                
     Q    Q    H           Q    Q    H           Q    Q    Q    Q     
D||---------------------|---------------------|----------------------|
A||--3------------------|--3------------------|--3---------3---------|
F||--2------------------|--2------------------|--2---------2---------|
C||--0------------------|--0------------------|--0---------0---------|
G||--0------------------|--0------------------|--0---------0---------|
C||--0------------------|--0------------------|--0---------0---------|


            |--3-|                     |--3-|         
  Q    Q    Q    E   Q       Q    Q    Q    E   Q     
--------------------------|--------------------------|
--3-----------------------|--3-----------------------|
--2-----------------------|--2-----------------------|
--0-----------------------|--0-----------------------|
--0-----------------------|--0-----------------------|
--0--------------3~--L----|--0--------------3~--L----|


            |--3-|                                                            
  Q    Q    Q    E   Q       Q    Q    Q    Q       H           E   E   Q     
--------------------------|----------------------|---------------------------||
--3-----------------------|--3---------3---------|--3------------------------||
--2-----------------------|--2---------2---------|--2------------------------||
--0-----------------------|--0---------0---------|--0------------------------||
--0-----------------------|--0---------0---------|--0---------------0h--3----||
--0--------------3~--L----|--0---------0---------|--0--------7g12\-----------||


  Pre-verse                                                                           
  Q    Q    E  E  Q       Q    E  E   E  E  E   E      Q     Q    Q    E  E   
-----------------------|----------------------------|------------------------|
-----------------------|----------------------------|------------------------|
-------7-------7-------|--7-------7~--L-------------|-------10----7----5--7--|
-------7-------7-------|--7-------7~--L-------------|-------10----7----5--7--|
--5----5-------5-------|--5-------5~--L--0--3p--0h--|--5-----8----5----3--5--|
-----------------------|----------------------------|------------------------|


  H         E   E   E   E      Q    Q    E  E  Q       Q    E  E  E  E  E   E   
----------------------------|-----------------------|--------------------------|
----------------------------|-----------------------|--------------------------|
--L~--------L\--------------|-------7-------7-------|--7-------7--L------------|
--L~--------L\--------------|-------7-------7-------|--7-------7--L------------|
--L~--------5\--0h--3p--0h--|--5----5-------5-------|--5-------5--L--0--3p--0--|
----------------------------|-----------------------|--------------------------|


                                                       Verse 1                   
  Q     Q    Q    E  E     H         E     Q.          E  E  Q    H         
------------------------|--------------------------||----------------------|
------------------------|--------------------------||--x--7----------------|
-------10----7----5--7--|--L~--------L-------------||--x--7----------------|
-------10----7----5--7--|--L~--------L-------------||--x--7----------------|
--5-----8----5----3--5--|--L~--------L--7g12\------||----------------------|
------------------------|--------------------------||----------------------|


                            >       >       >           
  Q    Q    E  E   E  E     E   E   E   E   E  E  Q     
-------------------------|-----------------------------|
----------------------7--|-----------------------------|
--7------------7p--5--7--|--x--(x)--x--(x)--x--7--x----|
--7------------7p--5--7--|--x--(x)--x--(x)--x--7--x----|
--5----------------------|-----------------------------|
-------------------------|-----------------------------|


                            >       >       >     >        
  Q    Q    E  E   E  E     E   E   E   E   E  E  E   E    
-------------------------|--------------------------------|
-------------------------|--------------------------------|
--7------------7p--5--7--|--x--(x)--x--(x)--x--7--x--(x)--|
--7------------7p--5--7--|--x--(x)--x--(x)--x--7--x--(x)--|
--5----------------------|--------------------------------|
-------------------------|--------------------------------|


          >       >    SH         PM      >       >     >        
  E   E   E   E   E    Q.         E   E   E   E   E  E  E   E    
-------------------------------|--------------------------------|
-------------------------------|--------------------------------|
--7--(x)--x--(x)--x------------|--7--(x)--x--(x)--x--7--x--(x)--|
--7--(x)--x--(x)--x------------|--7--(x)--x--(x)--x--7--x--(x)--|
--5------------------<>3b------|--------------------------------|
-------------------------------|--------------------------------|


                              Chorus 1                                                 
    SH                           PM    PM                         PM         PM  
    H         Q    E   E      E  E  E  E  Q    E    E     Q    E  E  Q    E  E   
--------------------------||---------------------------|------------------------|
--------------------------||---------------------------|------------------------|
--<>7~--------------------||---------------------------|------------------------|
--------------------------||---------------------------|------------------------|
--------------0----3p--0--||--5-----5-----5----7--7g8--|--L----7-----5----7-----|
--------------------------||--5--5-----5---------------|----------5----------0--|


  >  PM PM PM                                         
  E  E  E  E  Q    E  E      E   E  E  E  Q    Q      
--------------------------|--------------------------|
--------------------------|--------------------------|
--------------------------|--------------------------|
--------------------------|---------------0----------|
--------------------------|---------------0----------|
--0--0--4--0--7----9--9b--|--Lb--9--7--0-------5/----|


                                            |-----3-----|                     
      E   E   E   E    E   E    E   E       Q     Q     Q     Q.          E   
----------------------------------------|------------------------------------|
---------15~--L-----------15~---L-------|--------14--------------------------|
-----------------15~---L----------------|--------------14--------------------|
--10g15----------------------------11s--|--14----------------14~------13g15--|
----------------------------------------|------------------------------------|
----------------------------------------|------------------------------------|


                                                         pick scrape          
   |-----3-----|     |----3----|                                              
   Q     Q     Q     E    E    E   E   E      H          Q             Q      
------------------------------------------|----------------------------------|
--15----------------15h--16p--15----------|--14~-----------------------------|
--------15------------------------15------|--14~-----------------------------|
--------------15----------------------15--|--------------x\------------------|
------------------------------------------|--------------x\------------------|
------------------------------------------|-------------------------7g12\----|


           PM   PM   PM                    PM    PM   PM    
  |----3---|    |----3----|                |-----3----|     
  H        Q    Q    Q    Q       H        Q     Q    Q     
-------------------------------|---------------------------|
-------------------------------|---------------------------|
--7----------------------------|--7------------------------|
--7----------------------------|--7------------------------|
--5--------5----5----0----2----|--5--------5\----0----2----|
-------------------------------|---------------------------|


       PM   PM        PM   PM                          PM   PM    
  |----3----|    |----3----|       |----3---|     |----3----|     
  Q    Q    Q    Q    Q    Q       H        Q     Q    Q    Q     
--------------------------------|--------------------------------|
--7--------------8--------------|--7-----------------------------|
--7--------------7--------------|--7-----------------------------|
--7--------------7--------------|--7-----------------------------|
--5--------------5--------------|--5--------5\----L----0----2----|
-------0----0---------0----0----|--------------------------------|


                                                        PM   PM    
  |----3---|     |-----3----|       |----3---|     |----3----|     
  H        Q     Q    Q     Q       H        Q     Q    Q    Q     
---------------------------------|--------------------------------|
--7------------------------------|--------------------------------|
--7------------------------------|--7-----------------------------|
--7------------------------------|--7-----------------------------|
--5--------5\----L----0h----2----|--5--------5\----L----0----2----|
---------------------------------|--------------------------------|


       PM   PM        PM   PM                                       
  |----3----|    |----3----|                          |----3----|   
  Q    Q    Q    Q    Q    Q       Q    Q     E   E   E    E    E   
--------------------------------|----------------------------------||
--7--------------8--------------|--7-------------------------------||
--7--------------7--------------|--7----7/-------12b--Lb--10h--12--||
--7--------------7--------------|--7----7/-------------------------||
--5--------------5--------------|--5-------------------------------||
-------0----0---------0----0----|----------------------------------||


   Guitar Solo 1                                                                      
                           |-----3-----|     |----3----|    |----3----|   
   E   E   H.              Q     Q     Q     E    E    E    E    E    E   
--10--13b--L------------|--L----13----15----15b---Lb--10h--13p--12h--13--|
------------------------|------------------------------------------------|
------------------------|------------------------------------------------|
------------------------|------------------------------------------------|
------------------------|------------------------------------------------|
------------------------|------------------------------------------------|


   |---3---|    |---3---|                           
   E   E   E    E   E   E   S   S  S   S  E    E    
--10--10-------------------------------------------|
----------13b--10------10--13p-10-----10------(0)--|
-------------------12-------------12b--------------|
-----------------------------------------14\-------|
---------------------------------------------------|
---------------------------------------------------|


  PM              W                                                           
  |-3|    3   3                  |------3------|      |---------3--------|    
  E  Q    E.  E.  Q    Q         Q      Q      Q      Q      Q      E    E    
-----------------------------|-----------------------------------------------|
-----------------------------|---------20b----20b----20b----20b----20b---Lb--|
--5--7----5---7---7----L/----|--(0)------------------------------------------|
-----------------------------|-----------------------------------------------|
-----------------------------|-----------------------------------------------|
-----------------------------|-----------------------------------------------|


   Q.       E   Q     Q      
-----------20---------------|
--20b----------20~----L\----|
----------------------------|
----------------------------|
----------------------------|
----------------------------|


     |--3--|                    |---3---|                
     Q     E    E    S   S  E   S   S   S  S  S   S   S  
--5g10----13b---Lb---Lp-10-13--12h-13p-12-10------------|
---------------------------------------------13p-12p-10-|
--------------------------------------------------------|
--------------------------------------------------------|
--------------------------------------------------------|
--------------------------------------------------------|


   E    S   S  E    E   E   Q     E   
-------------------------------------|
-------------------------------------|
--12b---Lb-10-12~--12~--L--12\----0--|
-------------------------------------|
-------------------------------------|
-------------------------------------|


   |--3--|   |----3----|  |-3|  |--|  |--3--|   
   E  E  E   S   S E   E  E  S  S  E  E  E  E   
-----------------------------------------------|
-------------------7---------------------------|
--10--9--7h--9h-10----10--9--7h-9-10--9--7-----|
--------------------------------------------9--|
-----------------------------------------------|
-----------------------------------------------|


    SH                                                                      
    Q     Q     Q         E   E          E   E   E    E   E   E    E    E   
----------------------------------|---------17-------17--20--20b---Lb--17--|
----------------------------------|-------------20b------------------------|
--<>7b----7~----7\----------------|--14g19---------------------------------|
----------------------14g19--17\--|----------------------------------------|
----------------------------------|----------------------------------------|
----------------------------------|----------------------------------------|


                              sweep       
                              PM    PM PM 
                              |----3---|  
   Q      E   E    E   Q      S     S  S  
--20b----20--20b~--L---------------------|
----------------------20\-------------10-|
-----------------------------------10----|
-----------------------------12----------|
-----------------------------------------|
-----------------------------------------|


   |-----3-----|                 |---3---|                
   E   E   S   S  S   S   S   S  E   E   E   E    S   S   
-----------------10h-12h-13p-12-10-----------------------|
--13--10--12h-13--------------------13--10---------------|
--------------------------------------------12b---Lb-10h-|
---------------------------------------------------------|
---------------------------------------------------------|
---------------------------------------------------------|


   |------3-----|      |-------3------|    
   Q      Q     Q      H          E   E    
------------------------------------------|
------------------------------------------|
--12p~----0h----5b~----Lb~--------Lp--0h--|
------------------------------------------|
------------------------------------------|
------------------------------------------|


              TH      TH      T                PH                          
  |-----3-----|       |------3------|                     |-----3----|     
  H           Q       Q       Q     Q          H          Q     Q    Q     
------------------------------------------|-------------------------------||
------------------------------------------|--<>8b~------------------------||
--5b--------<>5b----<>5b----<>5b----Lb----|--------------------------0----||
------------------------------------------|---------------3p----0---------||
------------------------------------------|-------------------------------||
------------------------------------------|-------------------------------||


  Verse 2                     
  E  E   Q    H          
-----------------------|
-----------------------|
--7--L\----------------|
--7--L\----------------|
--5--L\----------------|
-----------------------|


     m.115                        pick scrape                                   
                                  |---------3--------|                          
     Q        H         Q         Q           Q      Q      E    E       Q      
---------------------------|------------------------------------------------||
---------------------------|------------------------------------------------||
---------------------5/----|---x\----------x\-----x\-----x\---x\------------||
---------------------5/----|---x\----------x\-----x\-----x\---x\------------||
---------------------------|------------------------------------------------||
-------10g15\--------------|--------------------------------------10g15\----||


  Chorus 2                                                                           
          PM                    PM              PM    >  PM PM PM              
  Q    E  E  Q    E    E     E  E  Q    Q    E  E     E  E  E  E  Q    E  E    
--------------------------|------------------------|--------------------------|
--------------------------|------------------------|--------------------------|
--------------------------|------------------------|--------------------------|
--------------------------|------------------------|--------------------------|
--5----7-----5----7--7g8--|--L-----7----5----7-----|--------------------------|
--5-------5---------------|-----5---------------0--|--0--0--4--0--7----9--9b--|


  Q     E  E  Q    Q            Q     Q      Q      Q     
-------------------------|-------------------------------|
-------------------------|-----------15~-----------------|
-------------------------|------------------15~----------|
-----------0--L----------|--10g15------------------15----|
-----------0--L----------|-------------------------------|
--Lb----0----------5/----|-------------------------------|


                                                |----3----|           
   Q     E    E   Q.     E       E   E  E   E   E    E    E   E  E    
-----------------------------|---------------------------------------|
--14-------------------------|------15--L------15h--16p--15----------|
--------14~------------------|-------------15----------------15--L\--|
-------------14~--L------L\--|--15-----------------------------------|
-----------------------------|---------------------------------------|
-----------------------------|---------------------------------------|


                                                PM   PM    
                                           |----3----|     
      Q       Q     H           Q    Q     Q    Q    Q     
-----------------------------|----------------------------|
--12g14~---------------------|----------------------------|
--12g14~-----(x)-------------|--7----L\-------------------|
-------------(x)-------------|--7----L\----x--------------|
-------------(x)-------------|--5----L\----x----0----2----|
-----------------------------|----------------------------|


                                     PM   PM        PM   PM    
             |-----3----|       |----3----|    |----3----|     
  Q    Q     Q    Q     Q       Q    Q    Q    Q    Q    Q     
-----------------------------|--------------------------------|
-----------------------------|--7--------------8--------------|
--7----L\--------------------|--7--------------7--------------|
--7----L\----x---------------|--7--------------7--------------|
--5----L\----x----0h----2----|--5--------------5--------------|
-----------------------------|-------0----0---------0----0----|


             |-----3----|                |-----3-----|     
  Q    Q     Q    Q     Q       H        Q     Q     Q     
-----------------------------|----------------------------|
-----------------------------|----------------------------|
--7----L\--------------------|--7-------------------------|
--7----L\----x---------------|--7-------------------------|
--5----L\----x----0h----2----|--5--------5\----0h----2----|
-----------------------------|----------------------------|


                                    PM   PM        PM   PM    
           |-----3-----|       |----3----|    |----3----|     
  H        Q     Q     Q       Q    Q    Q    Q    Q    Q     
----------------------------|--------------------------------|
----------------------------|--7--------------8--------------|
--7-------------------------|--7--------------7--------------|
--7-------------------------|--7--------------7--------------|
--5--------5\----0h----2----|--5--------------5--------------|
----------------------------|-------0----0---------0----0----|


            pick scrape           Bridge                                         
                                  |------3------|      |------3------|      
  H         Q          Q          Q      Q      Q      Q      Q      Q      
-----------------------------||--------------------------------------------|
--7--------------------------||---------19~------------------19~-----------|
--7---------x\---------7/----||----------------19~------------------19~----|
--7---------x\---------7/----||--19~------------------19~------------------|
--5--------------------------||--------------------------------------------|
-----------------------------||--------------------------------------------|


   E    E   E   E   E   Q      E    
-----------------------------------|
--19s--17--------------------------|
-----------17----------17\----(0)--|
---------------17~--L--17\----(0)--|
-----------------------------------|
-----------------------------------|


     |------3------|      |------3------|                                       
     Q      Q      Q      Q      Q      Q         E    E   E   E   Q     Q      
----------------------------------------------|--------------------------------|
-----------12~------------------12~-----------|--------------------------------|
------------------12~------------------12~----|--12s--10------10~--L----12\----|
--7g12~------------------12~------------------|-----------10------------12\----|
----------------------------------------------|--------------------------------|
----------------------------------------------|--------------------------------|


      |------3------|      |---3--|             |--3-|                          
      Q      Q      Q      Q      H             E    Q     E   E   Q     Q      
--------------------------------------------|----------------------------------|
------------19~------------------19~--------|-----------------17~--L-----------|
-------------------19~----------------------|--19s--17--------17~--L-----------|
--14g19~------------------19~---------------|-------------19------------17\----|
--------------------------------------------|----------------------------------|
--------------------------------------------|----------------------------------|


   |------3------|                      
   Q      Q      Q      E   E   E   E   
---------------------------------------|
---------12~---------------12---L--10--|
----------------12~--------12---L--10--|
--12~------------------12-----------x--|
---------------------------------------|
---------------------------------------|


                         pick scrape                                
  E   E   Q      Q       E           E      E  E  Q    Q    E   E   
-----------------------------------------|-------------------------|
--L--------------------------------------|-------------------------|
--L------10b----10b~-----x\--------------|-------------------------|
-----12------------------x\---------12\--|--L--0--3----5----6b--7--|
------------------------------------12\--|--L----------------------|
-----------------------------------------|-------------------------|


                                                       PH  
  E  E  E   E  Q     Q        E  E  E   E  E   E  E    E   
---------------------------|------------------------------|
---------------------------|------------------------------|
---------------------------|------------------------------|
--L--0--6p--0--5b----3b----|--0--0--3p--0--5p--0--6--<>7--|
---------------------------|------------------------------|
---------------------------|------------------------------|


        PH       SH                                            
  E     E  E     E   Q        Q        E  E  Q     Q    E  E   
------------------------------------|-------------------------|
------------------------------------|-------------------------|
-----------5~--<>7~--L--------------|-------------------------|
--L~--<>7---------------------------|-------------------------|
------------------------------------|-----x-------------------|
--------------------------10g12\----|--0--x--3b----5----6--7--|


                                                                      PM     
  Q    E  E  Q    E  E     E  E  Q     Q    E  E     Q    E   E  Q    E  E   
------------------------|-------------------------|-------------------------||
------------------------|-------------------------|-------------------------||
------------------------|-------------------------|-------------------------||
------------------------|-----x-------------------|-------------------------||
---------------------0--|--L--x-------------------|--------------5----3--5--||
--L----6--0--5----3--0--|--L-----3b----5----6--7--|--L----6p--0--5----3--5--||


  Guitar Solo 2                                
       SH                           
                   |---3--|         
  E    E   Q       E   E  E  Q      
-----------------------------------|
-----------------------------------|
-----<>7b--Lb----7g5h--7-----7~----|
-----------------------------------|
--L--------------------------------|
--L--------------------------------|


          |----3---|   |-----3----|   |---3--|   
   Q      E   E    E   E   E   S  S   E  E   E   
------------------------------------------------|
-----------------------------------------7------|
--(3)/----7h--9h--10--10p--9p--7h-9h-10-----10--|
------------------------------------------------|
------------------------------------------------|
------------------------------------------------|


             3     3   |-----3----|                  
  S  S   S S E.    E.  Q      S   S   S   S   S   S  
-----------------------5/----10h-12h-13p-12h-13p-12-|
-----------7----------------------------------------|
--7h-9h-10---7s---11--------------------------------|
----------------------------------------------------|
----------------------------------------------------|
----------------------------------------------------|


   E   E   E   E     Q     Q      
------10-------------------------|
--12--10------13b~---L-----------|
--12------12--------------12\----|
--------------------------12\----|
---------------------------------|
---------------------------------|


      |---3---|   |--3-|      |------3------|      
      E   E   E   E    Q      Q      Q      Q      
--------------------------------------------------|
---------18--20b--Lb--20b----20b----20b----20b----|
--14g19-------------------------------------------|
--------------------------------------------------|
--------------------------------------------------|
--------------------------------------------------|


   |----3----|                    |----3----|   
   E    E    E   E    E    Q      E    E    E   
----------------20b--20b~--Lb----(0)-------10--|
--20b---Lb--18------------------------13b------|
-----------------------------------------------|
-----------------------------------------------|
-----------------------------------------------|
-----------------------------------------------|


   |----3---|   |----3---|   |----3---|   |------3-----|  
   E    E   E   E    E   E   E   E    E   E    E    S  S  
--13p--10------------------------------------------------|
-----------13--13p--10------10---------------------------|
------------------------12------12b--10--12b---Lb--10p-0-|
---------------------------------------------------------|
---------------------------------------------------------|
---------------------------------------------------------|


  \1/      \1/                                                             
  H        E   E  E  E     E  E  E  E  Q    E  E     Q    Q    Q    E  E   
------------------------|-------------------------|-----------------------|
------------------------|-------------------------|-----------------------|
--L--------0------------|-------------------------|-----------------------|
------------------------|-------------------------|-----------------------|
---------------------0--|-------------------------|-----------------------|
---------------0--3--0--|--0--0--3--0--5----6--7--|--L----6----5----3--0--|


  E  E  E   E  Q    E    E     E  E  E  E  E  E   E  E   
----------------------------|---------------------------|
----------------------------|---------------------------|
----------------------------|---------------------------|
----------------------------|------------------------0--|
----------------------------|------------------------0--|
--L--0--3p--0--5----6--6g7--|--L--0--6--5--L--3h--5--0--|


                    hand slide                                hand slide  
  Q    Q    Q    E  E             Q    E  E  H           Q    Q           
-------------------------------|----------------------|------------------||
-------------------------------|----------------------|------------------||
--------------------x/---------|----------------------|-------x/---------||
--------------------x/---------|--0-------0-----------|-------x/---------||
--x----------------------------|--0-------0-----------|------------------||
--x----------------------------|--0-------0-----------|------------------||


   Outro                                                                           
   TP                                           TP     TP   TP        TP       
                             |---3--|   |--|                     |----3---|    
   H.            E   E       S   S  S   S  E    Q      E    E    E    E   E    
--10------------10-------|------10-----10------12-----13---15--------17--20b--|
--10------------10-------|--13b----13b----13b--15b----16b--18b--20b-----------|
--10------------10--10/--|----------------------------------------------------|
-------------------------|----------------------------------------------------|
--10------------10-------|----------------------------------------------------|
-------------------------|----------------------------------------------------|


   S   S   S  S  S   S  E    E   E    S  S  S  S  
---Lb-20b-20-20--Lb-20-20\~--L-------------------|
--------------------------------12b--10----------|
--------------------------------12b-----12-10-12-|
-------------------------------------------------|
-------------------------------------------------|
-------------------------------------------------|


                                 \1/     TP                      
           |------5-----|                                        
  E    E   S  S  S   S  S  Q     Q       H        Q       E  E   
--------------------------------------|--5--------5-------------|
--------------------------------------|--5--------5-------------|
--L~--10--12-10-----------------------|--5--------5----12g5--5--|
----------------12p-10-12--L~----0----|-----------4----------5--|
--------------------------------------|--5--------5-------------|
--------------------------------------|-------------------------|


                                    SH  \1/                                     
  |----3----|                                                                   
  Q    Q    Q      H           E    E   H.               H        E  E   Q      
----------------------------|-------------------------|-----------5--L\-------||
----------------------------|-------------------------|--3--------5--L\-------||
--5----5----5----5g7--------|--L--<>7b--Lb------------|--2--------5--L\-------||
--5----5----5---------------|-------------------------|--0--------------------||
----------------------------|-------------------------|--0--------5--L\-------||
----------------------------|-------------------------|-----------------------||



ACOUSTIC

     Intro                                                      
     E  E  E   E  E  E  E  E     E   E  E  E  E  E  E   E   
E||-----3--3---1--1--0--L--3--|--3---1--1--0--L--0--0---0--|
C||--------0---------0--L-----|---------0--0--L--0--0---0--|
G||-----3--3s--2--2--0--L--3--|--3s--2--2--0--L------------|
C||--------0---------0--L-----|--0---------0--L--3--3s--4--|
G||---------------------------|----------------------------|
C||---------------------------|----------------------------|


                                                         ^                      
  E  E  E   E  E  E  E  E     E   E  E  E  E  E  Q       Q    Q    Q    E   E   
--0--3--3---1--1--0--L--3--|--3---1--1--0--L-----0----|------------------------|
--0--0--0------0--0--L-----|---------0--0--L----------|--0---------------------|
--0--3--3s--2--2--0--L--3--|--3s--2--2--0--L--3--3----|--5--------------3s--5--|
--0-----0------0--0--------|--0------0--0--L----------|--0---------------------|
---------------------------|------------------3--3----|--5--------------3s--5--|
---------------------------|--------------------------|--0----0----0----0------|


  Q    Q    Q    E   E     Q    Q    E  E  Q        Q    Q    E  E  E   E   
------------------------|------------------------|-------------------------|
------------------------|--0----0----0-----------|---------------0---------|
--5--------------3s--5--|--5----5----5--3--3s----|--5---------------3s--5--|
------------------------|--0----0----0-----------|-------------------------|
--5--------------3s--5--|--5----5----5--3--3s----|--5---------0-----3---5--|
--0----0----0----0------|--0----0----0-----0-----|--0----0----0-----0------|


                                                           >               
  Q    Q    E  E  E   E     Q    Q    E  E  E   E     Q    Q    Q    Q     
--0----------------------|-------------------------|----------------------|
--0------------0---------|---------------0---------|----------------------|
--5---------------3s--5--|--5---------------3s--5--|--5----5----5---------|
-------------------------|-------------------------|--0----0----0---------|
--5---------------3s--5--|--5---------------3s--5--|--5----5----5---------|
--0----0----0-----0------|--0----0----0-----0------|--0----0----0----0----|


                 |--3--|                              
  Q    Q    Q    E  E  E     E  E  E  E  E  E  E  E   
--------------------------|--------------------------|
--------------------------|-----5-----5-----5-----5--|
--------------------0-----|-----5-----5-----5-----5--|
-------0----0----0--------|--------------------------|
--5----5----5----5--------|--5-----7-----5-----7-----|
--0----0----0----0-----0--|--5-----5-----5-----5-----|


  E  E  E  E  E  E  E  E     E  E  E  E  E  E  E  E     E  E  E  E  E  E  Q     
--------------------------|--------------------------|-----------------0--L----|
-----5-----5-----5-----5--|-----0-----0-----0-----0--|-----0-----2--L--0--L----|
-----5-----5-----5-----5--|-----0-----0-----0-----0--|-----0-----3--L--0--L----|
--------------------------|--------------------------|-------------------------|
--5-----7-----5-----7-----|--------------0-----2-----|--3-----2-----------0----|
--5-----5-----5-----5-----|--0-----4-----------------|-----------0--L----------|


  E  E   E  E  E  E   E  E     E  E  E  E  E  E  E  E   
----------------------------|-----------7--L-----------|
-----8------8-----8------7--|-----7-----7--L--7-----7--|
-----8------8-----8------7--|-----7-----7--L--7-----7--|
----------------------------|--------------------------|
--8-----10-----8-----10-----|--7-----9--7--L-----9-----|
--8------8-----8------8-----|--7-----7--7--L-----7-----|


  E  E   E  E  E  E   E  E     W                 
------------------8---------|--7----------------|
-----8------8-----8------7--|--7----------------|
-----8------8-----8------7--|--7----------------|
----------------------------|--7----------------|
--8-----10-----8-----10-----|--7----------------|
--8------8-----8------8-----|--7----------------|


  |----3----|    |----3----|       |----3----|    |----3----|     
  Q    Q    Q    Q    Q    Q       Q    Q    Q    Q    Q    Q     
--------------------------------|--------------------------------|
------------4----5--------------|------------4----5--------------|
--5----5----5----5----0----3----|--5----5----5----5----0----3----|
--------------------------------|--------------------------------|
--5----5----5----5----0----3----|--5----5----5----5----0----3----|
--0----0----0----0--------------|--0----0----0----0--------------|


  |----3----|    |----3----|       |------3-----|    |----3----|     
  Q    Q    Q    Q    Q    Q       E   E   Q    Q    Q    Q    Q     
--------------------------------|--------------------0--------------|
------------4----5----5----5----|--5p--4p--0------------------------|
--5----5----5----5--------------|-------------------------0----2----|
--------------------------------|---------------0-------------------|
--5----5----5----5--------------|-----------------------------------|
--------------------------------|-----------------------------------|


  |----3----|    |----3----|       |----3----|    |----3----|     
  Q    Q    Q    Q    Q    Q       Q    Q    Q    Q    Q    Q     
--------------------------------|--------------------------------|
------------4----5--------------|------------4----5--------------|
--5----5----5----5----0----3----|--5----5----5----5----0----3----|
--------------------------------|--------------------------------|
--5----5----5----5----0----3----|--5----5----5----5----0----3----|
--0----0----0----0--------------|--0----0----0----0--------------|


                                                               
  |----3----|    |----3----|       |---3---|                      
  Q    Q    Q    Q    Q    Q       E   E   E  E  E  E  E  E   E   
--------------------------------|----------------0--L------------|
------------4----5----5----5----|--5p--4p--0---------------------|
--5----5----5----5--------------|----------------------3--3s--5--|
--------------------------------|-------------0------------------|
-------5----5----5--------------|----------------------3--3s--5--|
--------------------------------|----------------------0--0------|


  Q    Q    E  E  E   E     Q    Q    E  E  E   E     E  E  E  E  E  E  E  E   
-------------------------|-------------------------|--------------------------|
--0----------------------|-------------------------|-----0-----0-----0-----0--|
--5------------3--3S--5--|--5------------3--3s--5--|--5-----5-----5-----3-----|
--0----------------------|-------------------------|--------------------------|
--5------------3--3S--5--|--5------------3--3s--5--|--5-----5-----5-----3-----|
--0---------0-----0------|--0----0----0-----0------|--0-----0-----0-----0-----|


  Q    Q    E  E  E   E     Q    Q    E  E  E   E     Q    Q    E  E  E   E   
-------------------------|-------------------------|-------------------------|
--0----------------------|--0----------------------|--0------------0---------|
--5------------3--3s--5--|--5------------3--3s--5--|--5---------------3s--5--|
--0----------------------|--0----------------------|--0----------------------|
--5------------3--3s--5--|--5------------3--3s--5--|--5---------------3s--5--|
--0----0----0-----0------|--0----0----0-----0------|--0----0----0-----0------|


  E  E  E  E  E  E  E  E     E  E  E  E  E  E  E  E   
--------------------------|--------------------------|
-----0-----0-----0-----0--|-----0-----0-----0-----0--|
--5-----8-----5-----3-----|--5-----------------------|
--------------------------|--0-----------------0-----|
--5-----8-----5-----3-----|--5-----0-----0-----0-----|
--0-----0-----0-----0-----|--0-----0-----0-----------|


  E  E  E   E  E  E  E  E     E   E  E  E  E  E  E   E   
-----3--3---1--1--0--L--3--|--3---1--1--0--L--0--0------|
------------------0--L-----|------------0--L------------|
-----3--3s--2--2--0--L--3--|--3s--2--2--0--L------------|
--------0---------0--L-----|--0---------0--L--3--3s--4--|
--0------------------------|----------------------------|
--0------------------------|----------------------------|


  E  E  E   E  E  E  E  E     E   E  E  E  Q    Q       E  E  Q    E  E  E  E   
-----3--3---1--1--0--L--3--|--3---1--1--0-------0----|-----3--3----1--0--L--3--|
------------------0--L-----|------------0--0----0----|-----4--4-------0--L-----|
-----3--3s--2--2--0--L--3--|--3s--2--2--0-------0----|-----3--3----2--0--L--3--|
--0-----0---------0--L-----|--0------------3----4----|--5-------------0--L-----|
---------------------------|-------------------------|-------------------------|
---------------------------|-------------------------|-------------------------|


  Q     E  E  E  E  E   E     E  E  E   E  E  E  E  E   
--3-----1--0--L-----0------|-----3--3---1--1--0--L--3--|
-----------0--L--0---------|------------------0--L-----|
--3s----2--0--L------------|--0--3--3s--2--2--0--L--3--|
--0--------0--L--3--3s--4--|--0-----0------0-----0-----|
---------------------------|---------------------------|
---------------------------|---------------------------|


  E   E  E  E  E  E  Q       E  E  E  E  E  E  E  E   
--3---1--1--0--L----------|--------------------------|
------------0--L----------|-----5-----5-----5-----5--|
--3s--2--2--0--L----------|-----5-----5-----5-----5--|
--0---------0--L--0--0----|--------------------------|
------------------0--0----|--5-----7-----5-----7-----|
--------------------------|--5-----5-----5-----5-----|


  E  E  E  E  E  E  E  E     E  E  E  E  E  E  E  E   
--------------------------|--------------------------|
-----5-----5-----5-----0--|-----0-----0-----0-----0--|
-----5-----5-----5-----0--|--------------------------|
--------------------------|--------------------------|
--5-----7-----5-----7-----|--x-----------0-----2-----|
--5-----5-----5-----5-----|--0-----4-----------------|


  E  E  E  E  E  E  E  E     E  E   E  E  E  E   E  E   
--------------------------|----------------------------|
-----0-----0-----0-----0--|-----8------8-----8------7--|
-----0-----0-----0-----0--|-----8------8-----8------7--|
--------------------------|----------------------------|
--0-----------0--2--2-----|--8-----10-----8-----10-----|
--------4-----------------|--8------8-----8------8-----|


           >                                              ^                 
  E  E  E  E  E  E  E  E     E  E   E  E  E  E   E  E     W                 
-----------7--L-----------|----------------------------|--7----------------|
-----7-----7--L--7-----7--|-----8------8-----8------7--|--7----------------|
-----7-----7--L--7-----7--|-----8------8-----8------7--|--7----------------|
--------------------------|----------------------------|--7----------------|
--7-----9--7--L-----9-----|--8-----10-----8-----10-----|--7----------------|
--7-----7--7--L-----7-----|--8------8-----8------8-----|--7----------------|


  H                                                               
  |----3----|    |----3----|       |----3----|    |----3----|     
  Q    Q    Q    Q    Q    Q       Q    Q    Q    Q    Q    Q     
------------0----1--------------|------------0----1--------------|
--0----0----0----0--------------|--0----0----0----0--------------|
--0----0----0----0----0----0----|--0----0----0----0----0----0----|
--0----0----0----0----0----0----|--0----0----0----0----0----0----|
----------------------0----2----|----------------------0----2----|
--------------------------------|--------------------------------|


  |----3----|    |----3----|       |-----3----|    |----3----|     
  Q    Q    Q    Q    Q    Q       Q     Q    Q    Q    Q    Q     
------------0----1----1----1----|--1p----0------------------------|
--0----0----0----0----0----0----|--0---------------0--------------|
--0----0----0----0----0----0----|--0----------0---------0---------|
--0----0----0----0----0----0----|--0-------------------------0----|
--------------------------------|---------------------------------|
--------------------------------|---------------------------------|


  |----3----|    |----3----|       |----3----|    |----3----|     
  Q    Q    Q    Q    Q    Q       Q    Q    Q    Q    Q    Q     
------------0----1--------------|------------0----1--------------|
--0----0----0----0--------------|--0----0----0----0--------------|
--0----0----0----0----0----0----|--0----0----0----0----0----0----|
--0----0----0----0----0----0----|--0----0----0----0----0----0----|
----------------------0----2----|----------------------0----2----|
--------------------------------|--------------------------------|


  |----3----|    |----3----|       |----3----|               
  Q    Q    Q    Q    Q    Q       Q    Q    Q    H          
------------0----1----1----1----|--1----0----0----0--------|
--0----0----0----0----0----0----|--0----0----0----0--------|
--0----0----0----0----0----0----|--0----0----0----0--------|
--0----0----0----0----0----0----|--0----0----0----0--------|
--------------------------------|--------------------------|
--------------------------------|--------------------------|


     Verse 1 - m.69                                                 
     E  E  E   E  E  E  E  E     E   E  E  E  H         
-----3--3---1--1--0--L--3--|--3---1--1--0--L--------|
------------------0--L-----|------------0--L--------|
-----3--3s--2--2--0--L--3--|--3s--2--2--0--L--------|
--------0---------0--L-----|--0---------0--L--------|
---------------------------|------------------------|
---------------------------|------------------------|


  E  E  E   E  E  E  E  E     E   E  E  E  H         
--L--3--3---1--1--0--L--3--|--3---1--1--0--L--------|
--L---------------0--L-----|------------0--L--------|
--L--3--3s--2--2--0--L--3--|--3s--2--2--0--L--------|
--L-----0---------0--L-----|--0---------0--L--------|
---------------------------|------------------------|
---------------------------|------------------------|


  E  E  E   E  E  E  E  E     E   E  E  E  H         
--L--3--3---1--1--0--L--3--|--3---1--1--0--L--------|
--L---------------0--L-----|------------0--L--------|
--L--3--3s--2--2--0--L--3--|--3s--2--2--0--L--------|
--L-----0---------0--L-----|--0---------0--L--------|
---------------------------|------------------------|
---------------------------|------------------------|


  E  E  E   E  E  E  E  E     E   E  E  E  H          
--L--3--3---1--1--0--L--3--|--3---1--1--0--L--------|
--L---------------0--L-----|------------0--L--------|
--L--3--3s--2--2--0--L--3--|--3s--2--2--0--L--------|
--L-----0---------0--L-----|--0---------0--L--------|
---------------------------|------------------------|
---------------------------|------------------------|


  m.85                                                               
  |----3----|    |----3----|       |----3----|    |----3----|     
  Q    Q    Q    Q    Q    Q       Q    Q    Q    Q    Q    Q     
------------0----1--------------|------------0----1--------------|
--0----0----0----0--------------|--0----0----0----0--------------|
--0----0----0----0----0----0----|--0----0----0----0----0----0----|
--0----0----0----0----0----0----|--0----0----0----0----0----0----|
----------------------0----2----|----------------------0----2----|
--------------------------------|--------------------------------|


  |----3----|    |----3----|       |-----3----|    |----3----|     
  Q    Q    Q    Q    Q    Q       Q     Q    Q    Q    Q    Q     
------------0----1----1----1----|--1p----0------------------------|
--0----0----0----0----0----0----|--0---------------0--------------|
--0----0----0----0----0----0----|--0----------0---------0---------|
--0----0----0----0----0----0----|--0-------------------------0----|
--------------------------------|---------------------------------|
--------------------------------|---------------------------------|


  |----3----|    |----3----|       |----3----|    |----3----|     
  Q    Q    Q    Q    Q    Q       Q    Q    Q    Q    Q    Q     
------------0----1--------------|------------0----1--------------|
--0----0----0----0--------------|--0----0----0----0--------------|
--0----0----0----0----0----0----|--0----0----0----0----0----0----|
--0----0----0----0----0----0----|--0----0----0----0----0----0----|
----------------------0----2----|----------------------0----2----|
--------------------------------|--------------------------------|


  |----3----|    |----3----|       |----3----|               
  Q    Q    Q    Q    Q    Q       Q    Q    Q    H          
------------0----1----1----1----|--1----0----0----0--------|
--0----0----0----0----0----0----|--0----0----0----0--------|
--0----0----0----0----0----0----|--0----0----0----0--------|
--0----0----0----0----0----0----|--0----0----0----0--------|
--------------------------------|--------------------------|
--------------------------------|--------------------------|


  M.101                                                               
  |----3----|    |----3----|       |----3----|    |----3----|     
  Q    Q    Q    Q    Q    Q       Q    Q    Q    Q    Q    Q     
------------0----1--------------|------------0----1--------------|
--0----0----0----0--------------|--0----0----0----0--------------|
--0----0----0----0----0----0----|--0----0----0----0----0----0----|
--0----0----0----0----0----0----|--0----0----0----0----0----0----|
----------------------0----2----|----------------------0----2----|
--------------------------------|--------------------------------|


  |----3----|    |----3----|       |-----3----|    |----3----|     
  Q    Q    Q    Q    Q    Q       Q     Q    Q    Q    Q    Q     
------------0----1----1----1----|--1p----0------------------------|
--0----0----0----0----0----0----|--0---------------0--------------|
--0----0----0----0----0----0----|--0----------0---------0---------|
--0----0----0----0----0----0----|--0-------------------------0----|
--------------------------------|---------------------------------|
--------------------------------|---------------------------------|


  |----3----|    |----3----|       |----3----|    |----3----|     
  Q    Q    Q    Q    Q    Q       Q    Q    Q    Q    Q    Q     
------------0----1--------------|------------0----1--------------|
--0----0----0----0--------------|--0----0----0----0--------------|
--0----0----0----0----0----0----|--0----0----0----0----0----0----|
--0----0----0----0----0----0----|--0----0----0----0----0----0----|
----------------------0----2----|----------------------0----2----|
--------------------------------|--------------------------------|


  |----3----|    |----3----|       |----3----|              
  Q    Q    Q    Q    Q    Q       Q    Q    Q    H         
------------0----1----1----1----|--1----0----0----0--------||
--0----0----0----0----0----0----|--0----0----0----0--------||
--0----0----0----0----0----0----|--0----0----0----0--------||
--0----0----0----0----0----0----|--0----0----0----0--------||
--------------------------------|--------------------------||
--------------------------------|--------------------------||


  Verse 2                                                     
  E  E  E   E  E  E  E  E     E   E  E  E  E  E  E   E   
-----3--3---1--1--0--L--3--|--3---1--1--0--L------------|
------------------0--L-----|------------0--L------------|
-----3--3s--2--2--0--L--3--|--3s--2--2--0--L------------|
--------0---------0--L-----|--0---------0--L--3--3s--4--|
---------------------------|----------------------------|
---------------------------|----------------------------|


  E  E  E   E  E  E  E  E     E   E  E  E  Q     Q     
--0--3--3---1--1--0--L--3--|--3---1--1--0-------------|
--0---------------0--L-----|------------0-------------|
--0--3--3s--2--2--0--L--3--|--3s--2--2--0--3s----4----|
--0-----0------0--0--------|--0---------0-------------|
---------------------------|---------------3s----4----|
---------------------------|--------------------------|


  E  E  E   E  E  E  E  E     E   E  E  E  E  E  E   E   
-----3--3---1--1--0--L--3--|--3---1--1--0--L------------|
------------------0--L-----|------------0--L------------|
--5--3--3s--2--2--0--L--3--|--3s--2--2--0--L------------|
--------0---------0--L-----|--0---------0--L--3--3s--4--|
--5------------------------|----------------------------|
---------------------------|----------------------------|


  E  E  E   E  E  E  Q       W                  
--0--3--3---1--1--0--L----|--L----------------|
--0---------------0--L----|--L----------------|
--0--3--3s--2--2--0--L----|--L----------------|
--0-----0------0--0-------|-------------------|
--------------------------|-------------------|
--------------------------|-------------------|


  m.125                                                               
  |----3----|    |----3----|       |----3----|    |----3----|     
  Q    Q    Q    Q    Q    Q       Q    Q    Q    Q    Q    Q     
------------0----1--------------|------------0----1--------------|
--0----0----0----0--------------|--0----0----0----0--------------|
--0----0----0----0----0----0----|--0----0----0----0----0----0----|
--0----0----0----0----0----0----|--0----0----0----0----0----0----|
----------------------0----2----|----------------------0----2----|
--------------------------------|--------------------------------|


  |----3----|    |----3----|       |-----3----|    |----3----|     
  Q    Q    Q    Q    Q    Q       Q     Q    Q    Q    Q    Q     
------------0----1----1----1----|--1p----0------------------------|
--0----0----0----0----0----0----|--0---------------0--------------|
--0----0----0----0----0----0----|--0----------0---------0---------|
--0----0----0----0----0----0----|--0-------------------------0----|
--------------------------------|---------------------------------|
--------------------------------|---------------------------------|


  |----3----|    |----3----|       |----3----|    |----3----|     
  Q    Q    Q    Q    Q    Q       Q    Q    Q    Q    Q    Q     
------------0----1--------------|------------0----1--------------|
--0----0----0----0--------------|--0----0----0----0--------------|
--0----0----0----0----0----0----|--0----0----0----0----0----0----|
--0----0----0----0----0----0----|--0----0----0----0----0----0----|
----------------------0----2----|----------------------0----2----|
--------------------------------|--------------------------------|


  |----3----|    |----3----|       |----3----|               
  Q    Q    Q    Q    Q    Q       Q    Q    Q    H          
------------0----1----1----1----|--1----0----0----0--------||
--0----0----0----0----0----0----|--0----0----0----0--------||
--0----0----0----0----0----0----|--0----0----0----0--------||
--0----0----0----0----0----0----|--0----0----0----0--------||
--------------------------------|--------------------------||
--------------------------------|--------------------------||



Duration Legend
---------------
W - whole
H - half
Q - quarter
E - 8th
S - 16th
. - note dotted
|-n-|  - n-tuplets


Tablature Legend
----------------
L - tied note
x - dead note
g - grace note
(n) - ghost note
> - accentuded note
NH - natural harmonic
AH - artificial harmonic
TH - tapped harmonic
SH - semi harmonic
PH - pitch harmonic
h - hammer on
p - pull off
b - bend
pb - preBend
\n - tremolo bar dive
/n - tremolo bar return
-\n - tremolo bar Release down
S - shift slide
s - legato slide
/ -  slide into from below or out of upwards
\ -  slide into from above or out of downwards
~ - vibrato
TP - tremolo picking


Get my other tabs for Guitar Pro, Powertab, guitar/bass text and chords at
http://profile.ultimate-guitar.com/TexasFury/contributions/
Tap to rate this tab
# A B C D E F G H I J K L M N O P Q R S T U V W X Y Z