Song name
# A B C D E F G H I J K L M N O P Q R S T U V W X Y Z

Van Halen - Chinatown tab

This is a guess so don't hate me too much. I'll put up the rest once i get it down.

Song: Chinatown
Artist: Van Halen
Album: A Different Kind of Truth
Track #: 4

Standard Tuning (E, A, D, G, B, e)
Full distortion, very little bass
difficulty: intermediate

Intro: slow at first then pick up speed
      T      T      T      T
e:|---12p0h8--------12p0h8--------12p0h8--------12p0h8--------12p0h8----|
B:|----------12p0h8--------12p0h8-------12p0h8---------12p0h8-----------|
G:|---------------------------------------------------------------------|
D:|---------------------------------------------------------------------|
A:|---------------------------------------------------------------------|
E:|---------------------------------------------------------------------|

e:|------------10h12p10h12p10h12p10h12p10h12p10-------------------------|
B:|---12p0h8------------------------------------------------------------|
G:|------------------------------------------------2--4--5--4--0--2---4-|
D:|-------------------------------------------------------------------4-|
A:|-------------------------------------------------------------------2-|
E:|---------------------------------------------------------------------|
Tap to rate this tab
# A B C D E F G H I J K L M N O P Q R S T U V W X Y Z