Song name
# A B C D E F G H I J K L M N O P Q R S T U V W X Y Z

Van Halen - So This Is Love tab

Van Halen
So This Is Love?
from Fair Warning


* - pickslide


part 1:

 clean...........................	      distortion.................................
|--------------------------------|     |-------------------------------------------|
|--7-8--5~~---6--5---------------|     |-------------------------------------------|
|--7-7--5~~---5--5---4--2--2--2--| 2x  |-------------------------------------------|
|--------------------5--5--5--4--|     |--5-5-5-5-5-5-5-----7---4--*---------------|
|--------------------------------|     |--3-3-3-3-3-3-3--5--5---2--*--3----5----7--|
|--------------------------------|     |-----------------3---------*--1----3----5--|


this is what i do because it sounds fuller, but play
the same thing as the clean part if you dont like it
|-----------------------------------------------|
|--7-8-7--5-5~~--0-5-0-6--5-5--5-0--------------|
|--7-7-7--5-5~~--0-5-0-5--5-5--5-0--4--2--2--2--| 2x
|-----------------------------------5--5--5--4--|
|-----------------------------------------------|
|-----------------------------------------------|


repeat part 1, then the solo:

|------------------------------------------------------------|
|------------------------9b----------------------------------|
|--------------------7---9b-------9b-7----9^10^9-7-----------|
|---------------7-^9---9---------------9---------------------|
|--------5-7/-9----------------------------------------------|
|------------------------------------------------------------|


------10-----------------------------8^-10-^12-10-8----8-----------|
--------10--------*-------8^-10-^12-----------------12---13^12^10--|
----------11^10--10b-----------------------------------------------|
---------------12--------------------------------------------------|
-------------------------------------------------------------------|
-------------------------------------------------------------------|


-----------------------------------------------------------------|
-----------------------------------------------------------*-*-*-|
--12-10/9b-10-r9^8^7s7^8^9b10r9^8^7s7^8^9b10r9^8^7-9br7--7-9-9-7-|
-------------------------------------------------------9---------|
-----------------------------------------------------------------|
-----------------------------------------------------------------|


-----------------------------------------------------------------|
---9^10^13-9^10^9------------------------------------------------|
------------------12-12^10^9^10^9--------------------------------|
---------------------------------12^10^9-------------------------|
-----------------------------------------12^10^9\8~~-------------|
-----------------------------------------------------------------|


--------------------------------------------------------------------|
----------------------15br------------------------------------------|
-------x-10br-7--7--------12121212--12bh121212r(10)12-10br------10b-|
---7-9----------9-----------------------------------------1210------|
--------------------------------------------------------------------|
--------------------------------------------------------------------|


----------------------13------/13-/13b-/14--etc--|
-------------------13b--13b----------------------|
----------12br(10)-------------------------------|
--12-1210----------------------------------------|
-------------------------------------------------|
-------------------------------------------------|


part 2:

|-------------------------------------------|   |--------------------------------|
|-------------------------------------------|   |--7-8--5~~---6--5---------------|
|-------------------------------------------|   |--7-7--5~~---5--5---4--2--2--2--| 2x
|--5-5-5-5-5-5-5-----7---4--*---------------|   |--------------------5--5--5--4--|
|--3-3-3-3-3-3-3--5--5---2--*--3----5----7--|   |--------------------------------|
|-----------------3---------*--1----3----5--|   |--------------------------------|


after that the outro starts which i just improvise on because
its a bunch of noise until the end, which im not really sure
of except for the last two chords eddie hits, which are:

|-------|
|-------|
|--7-7--|
|--7-7--|
|--5-5--|
|-------|
Tap to rate this tab
# A B C D E F G H I J K L M N O P Q R S T U V W X Y Z