Song name
# A B C D E F G H I J K L M N O P Q R S T U V W X Y Z

Van Halen - Ill Wait tab

============================================================================
Artist:Van Halen
Album:Best of Both Worlds
Title:I'll Wait

Tuning:Standard (E A D G B e)

Legend:
p=pull off
h=hammer on
\x/=trem. bar x=# of steps bent down/raised up
|o--o| =repeat sign
|o--o|
~=vibrato
b=bend up to following note
pb=pre-bend (20pb22=fret 20,but bend up to 22 BEFORE picking,then pick note)
/=slide up
\=slide down


                                                          __________________
    [INTRO]                                               |1. 2.
e|--------||--5----5--3-----3-|-5--1--------|-1---0-----0-|---------------||
B|--------||--6----6--5-----5-|----3--------|-3---1-----1-|-----3---------||
G|--------|o--7----7--7-----7-|----3---2p0--|-3---0--2--0-|--2--3---------o|
D|--0h3h7-|o------------------|-----------3-|-------------|-----3---0h3h7-o|
A|--------||------------------|-------------|-------------|---------------||
E|--------||------------------|-------------|-------------|---------------||

 _______________
 |3.
e|-------------|-------------|------------|--------5--5--|--------3--------|
B|-----3-------|---3-------5-|----------6-|--------8--8--|--6--5--5--------|
G|--2--3-------|---3-------5-|----------7-|--------7--7--|--------5--------|
D|-----3-------|---3-------7-|----------7-|--------------|-----------------|
A|-------------|-------------|------------|--------------|-----------------|
E|-------------|-------------|------------|--------------|-----------------|

e|-------------|-------------|---3----3---|------1-------|
B|--3-------5--|---------6---|---6----6---|--5-3-3----6--|
G|--3-------5--|---------7---|---5----5---|------3---7---|
D|--3-------7--|---------7---|------------|---------7----|
A|-------------|-------------|------------|--------------|
E|-------------|-------------|------------|--------------|

    [RHY. FIG. 1]
e|--5----5----3--|-----3----------|--5------5---8-----8--|--5---7---------|
B|--8----7----6--|-----5--------6-|--8------7---10----10-|--6---8-----6---|
G|--7----7----5--|-----5------7---|--7------7---10----10-|--5---7----7----|
D|---------------|----------7-----|----------------------|----------7-----|
A|---------------|----------------|----------------------|----------------|
E|---------------|----------------|----------------------|----------------|

                  (END RHY. FIG. 1)
e|--5----5----3--|-----3----------|--5------5---8-----10-|------|
B|--8----7----6--|-----5--------6-|--8------7---10----12-|------|
G|--7----7----5--|-----5------7---|--7------7---10----12-|------|
D|---------------|----------7-----|----------------------|------|
A|---------------|----------------|----------------------|------|
E|---------------|----------------|----------------------|------|


    [VERSES 1,2,AND 3]
e||--5---------3------------|-----3----------1------|-1------0-------------|
B||--8---------5------------|-----5----------3------|-3------1-------1--3--|
G|o--7---------5------------|-----5----------2------|-2------2-------2--4--|
D|o-------------------------|-----------------------|----------------3--4--|
A||-------------------------|-----------------------|----------------------|
E||-------------------------|-----------------------|----------------------|
 1.You've got me captured.   I'm under your spell.  I guess I'll never learn
 2. 3., See Additional Lyrics

e|-5------3----------------|---3------1-----|-1----0-----------------------|
B|-6------5----------------|---5------3-----|-3----1--------1--3-----------|
G|-7------5----------------|---5------3-----|-2----2--------2--4-----------|
D|-------------------------|----------------|---------------3--5-----------|
A|-------------------------|----------------|------------------------------|
E|-------------------------|----------------|------------------------------|
   I have your picture. Yes I know it well.   Another page is turned.

 __________________________________
 |Play 1st and 3rd times only
e|--5------3--------------|----3-------1----|--1--------0--------------|
B|--6------5--------------|----5-------3----|--3--------1----1--3------|
G|--7------5--------------|----5-------2----|--2--------2----2--4------|
D|------------------------|-----------------|----------------3--5------|
A|------------------------|-----------------|--------------------------|
E|------------------------|-----------------|--------------------------|
   Are you for real?  It's so hard to tell,    from just a magazine

e|-5----------3---------------|--3------1-----|--1--------0--------------|
B|-6----------5---------------|--5------3-----|--3--------1--------1--3--|
G|-7----------5---------------|--5------3-----|--2--------2--------2--4--|
D|----------------------------|---------------|--------------------3--5--|
A|----------------------------|---------------|--------------------------|
E|----------------------------|---------------|--------------------------|
  Yeah, you just smile and the picture sells.   Look what that does to me


Chorus w/ [RHY. FIG. 1]

 ____________________________ _______________________
 |1.                         ||2.
e|---5----5------8-----10----||--5----5---8------8--|---10---10-------|
B|---8----7------10----12----||--8----7---10-----10-|---12---12-------|
G|---7----7------10----12----o|--7----7---10-----10-|---12---12-------|
D|---------------------------o|---------------------|-----------------|
A|---------------------------||---------------------|-----------------|
E|---------------------------||---------------------|-----------------|
     as   fine  as you are.     as   fine as you are.


    [INTERLUDE]
e||----------1---0--|---------3---1--|--------5---3--|
B||----------3---1--|---------5---3--|--------6---5--|
G|o----------2---0--|---------5---3--|--------7---5--|
D|o-----------------|----------------|---------------|
A||-----------------|----------------|---------------|
E||-----------------|----------------|---------------|

 _______________________ __________________________
 |1.                    ||2.
e|---3-----5-----1-------|---3-----5-----1---------|-----------|
B|---5-----------3-------|---5-----------3---------|-----------|
G|---5-----------3-------|---5-----------3---------|-----------|
D|-----------------------|-------------------------|-----------|
A|-----------------------|-------------------------|-----------|
E|-----------------------|-------------------------|-----------|


    [GUITAR SOLO]

              \1/\1/          \1/\1.5/          \1/\2.5/
   Harm.- - - - - - - - - - - - - - - - - - - - - - - - - - -| 
e|-----------------|----------------|-------------|------------------------|
B|-----------------|----------------|-------------|------------------------|
G|----7-----7------|---7-----7------|---7-----7---|---------------5--------|
D|-----------------|----------------|-------------|------------------7-----|
A|-----------------|----------------|-------------|---7--------------------|
E|-----------------|----------------|-------------|------------------------|

e|-----------------|----------------|----------------------|
B|---------------6-|--8-------------|----------------------|
G|--5--7--5^---7---|-----7^---------|---------------/16-14-|
D|-----------------|---------5^---3-|--------/14-12--------|
A|-----------------|----------------|-/12-10---------------|
E|-----------------|----------------|----------------------|
           ^=1/4 bend
                                                  rake
e|--17b19r17-------------|----------------------|------12-------------|
B|-----------15-18-17b18-|--r17-15-17----15~~~~-|----x----13p10-------|
G|-----------------------|------------14--------|--x------------10----|
D|-----------------------|----------------------|---------------------|
A|-----------------------|----------------------|---------------------|
E|-----------------------|----------------------|---------------------|

   rake
e|------12--10--13--13--12--13p12h13|12p10----10--------------------------|
B|----x-----------------------------|------13----13b15r13p10-----13b15----|
G|--x-------------------------------|------------------------12-----------|
D|----------------------------------|-------------------------------------|
A|----------------------------------|-------------------------------------|
E|----------------------------------|-------------------------------------|

e|-------------------20-------------|------------------20-----------------|
B|---20pb22-r21b22-------20b22------|--20pb22-r21b22---------20b22--------|
G|----------------------------------|-------------------------------------|
D|----------------------------------|-------------------------------------|
A|----------------------------------|-------------------------------------|
E|----------------------------------|-------------------------------------|

e|------------------------------------10h13~~-|---------------------------|
B|----------------------------10h12h13--------|---------------------------|
G|--------------------10h12h13----------------|---------------------------|
D|----------10--10-12-------------------------|--3p0-3p0--3p0---3b5--3--0-|
A|--/8-12p10--12------------------------------|---------------------------|
E|--------------------------------------------|---------------------------|

e|--12--10---------------8h10p8--|-----------------------|
B|---------10~~~~~~~~~~~---------|--8~~~~~~~~~~~~~~~~----|
G|-------------------------------|-----------------------|
D|-------------------------------|-----------------------|
A|-------------------------------|-----------------------|
E|-------------------------------|-----------------------|

    *                                                     *
    \1/\/\/\/\/\/\/\/\/\/\/          \1/\/\/\/\/\/\/\/\/\/\/\/\/\/\/
e|-------------------------------|--10-------------------/17----------|
B|-------------------------------|------------------------------------|
G|--7----------------------12b14-|------------------------------------|
D|-------------------------------|------------------------------------|
A|-------------------------------|------------------------------------|
E|-------------------------------|------------------------------------|
    *=vibrato w/ trem.bar                                *=Slide and vib.
                                                         simultaneously    


[Additional Lyrics]
2.I wrote a letter
And told her these words
That meant a lot to me
I never sent it
She wouldn't have heard
Her eyes don't follow me

And while she watches
I can never be free
Such good photography

3.You can't imagine
What your image means
The pages come alive
Your magic free
To everyone who reads
Heartbreakin' motor drive

Are you for real?
It's so hard to tell
From just a magazine
Yeah, you just smile and the picture sells
Look what that does to me
Tap to rate this tab
# A B C D E F G H I J K L M N O P Q R S T U V W X Y Z