Song name
# A B C D E F G H I J K L M N O P Q R S T U V W X Y Z

Van Halen - Neworld tab

ok this is my first tab and i`m not really sure it`s ok, i haven`t seen other people`s 
yet...
it was a bit of a pain to tab, but it sound really good even without the piano.
and why in the world did no one tab it as text?!?!?
Drop d Tuning - watch out for the harmonics.

E|-2-3p2------0-----------2-3p2p-0------|
B|-3------------3---------3------3-3----|
G|-2--------------0-------2------0---0--|
D|-0----------------------0------2------|
A|-------2-----------------------3------|
D|--------------------------------------|

E|2-3p2---0-------2-3p2-----3-2h3p2p0-----|
B|3---------3-----3---------1---------1---|
G|2---------------2---------0-----------0-|
D|0---------------0-----------------------|
A|------2---------------------------------|
D|----------------------------------------|


E|-----------0---------3--|
B|---------2----2------2--|
G|-2-----2--------4----0--|
D|-----2------------5--2--|
A|-0----------------------|
D|------------------------|


E|-2------0-2---------------------------------------|
B|-3----3------3-0---------------------------0------|
G|-2--2--------0---0---0-0-----------------0---0-0--|
D|-0-----------0-----0-----0-0-0-0-------0----------|
A|-------------------------------------2------------|
D|---------------------------------3/0--------------|

E|----------------2-----0-2--5-3h5p3--|---------------------------------|
B|-2--------2-3h5-3---2------3--------|--------------0--------------0---|
G|-2------2-------2-3--------0--------|-------------------------------1-|
D|-2--0h2---------0----------0--------|------0h2h3h4---4p2p0----0-2-----|
A|-0----------------------------------|-----------------------2---------|
D|------------------------------------|-----------------------0---------|

E|---------------------2----2-3h5-7------7-9-10-10-------|
B|---2h5--------2-3h5--3--3-------8----8-8-8--8-10-10----|
G|---2--------2--------2----------7--7---7-7--7--7----7--|
D|-0-2----0h2----------0-------------------------0-------|
A|---0---------------------------------------------------|
D|-------------------------------------------------------|

E|-------3-2h3p2-----0-------------|
B|-------3--------3-----0----------|
G|-------2----------------2---2----|
D|--------------------------2----0-|
A|----------------------------0----|
D|---------------------------------|
thse harmonics were a pain to listen  for,and if you have any suggestions i`m open to 
pain yourself to get it right.i did...
e-----------------------------------------------------------------------|
B-----------------------------------------------------------------------|
G----------------------------{12}------------------{12}-----------------|
D-------{12}------------{7}--------{12}---------------------------------|
A-{12}--------{7}------------------------{7}------------------{7}--{7}--|
D------------------{4}------------------------{4}--------{4}------------|

e-----------------{12}-------------------------------{12}--------------|
B----------------------{7}---------------{7}-----{7}-------------------|
G------------------------------------{5}-----{5}----------{7}-----{12}-|
D-----{7}-----{5}---------------------------------------------{7}------|
A-{7}-----{4}-------------------{5}------------------------------------|
D---------------------------{4}----------------------------------------|

e---------------------------------|
B---------------------------------|
G---------------------------------|
D---------{12}-----------{7}-{5}--|
A-----{5}------{7}---{7}----------|
D-{4}-----------------------------|

E|-------0------0--------0----------0--------------|
B|-3-3-----3------3--------3----------3------------|
G|-2---2------------2--------0----------0------0---|
D|-0-----------------------------------------0---0-|
A|------------4--------2----------0----------------|
D|----------------------------------------3--------|

E-------------------3-----2-||-----------------------|
B---3------3-3-2--3---3---3-||-----------------------|
G-0---0----0------3-----3-2-||-----------------------| twice
D-------0--0--------------0-||-------------------{5}-|
A---------------------------||-------------------{5}-|
D----------3----------------||--/4-3--/6-5--3-0--{5}-|

After that, also do thiese last bars twice    | (Trill) |- listen for it!
E--------------------------------------------------------|-----------------{12}-----|
B--------------------------3-3--3-3--2-2----3-2h3p2h3...-|-3------------------------|
G--------------------------2-2--2-3--2-2--2--------------|--2-----------{5}----{5}--|
D--------------------------------------------------------|--0--------{5}------------|
A--33--44--55--66--77--99--------------------------------|--------{5}---------------|
D--33--44--55--66--77--99--------------------------------|------{4)-----------------|
Tap to rate this tab
 
# A B C D E F G H I J K L M N O P Q R S T U V W X Y Z