Song name
# A B C D E F G H I J K L M N O P Q R S T U V W X Y Z

Van Halen - Top Jimmy tab

#----------------------------------PLEASE NOTE---------------------------------#
#This file is the author's own work and represents their interpretation of the #
#song. You may only use this file for private study, scholarship, or research. #
#------------------------------------------------------------------------------##

                                    TOP JIMMY
                            As recorded by Van Halen
                           (From the 1984 Album 1984)

Words and Music by Edward Van Halen, Alex Van Halen, Michael Anthony and David Lee Roth
Arranged by Van Halen
Transcribed by Derek Line

          G5                   F5                   D5                Dsus2sus4
      5 5 x x x x          3 3 x x x x          0 0 x x x x          x 5 7 7 7 x

           D                  G7+5                   C                  F7+5
      x 5 7 5 6 x          x x 5 5 5 x          x x x 3 4 x          x x 3 3 3 x

          E5                Gsus2sus4                G                Fsus2sus4
      x x 2 2 x x        x 10 12 12 12 x      x 10 12 10 11 x      x 8 10 10 10 x

           F                Csus2sus4            Esus2sus4                E
     x 8 10 8 9 x          x 3 5 5 5 x          x 7 9 9 9 x          x 7 9 7 8 x

       Asus2sus4                A
    x 12 14 14 14 x      x 12 14 12 13 x

Gtr I (D A D A C D) - 'Gtr. 1 (w/light dist.)'
Gtr II (E A D G B E) - 'Gtr. 2 (elec. w/dist.)'
Gtr III (E A D G B E) - 'Gtr. 3 (elec. w/dist.)'
Gtr IV (E A D G B E) - 'Gtr. 4 (elec. arr. for pickscrapes)'

 Intro
  Fast Q=184
  D7+5
 4/4
  Gtr I
   Q    E    E    Q     E    E
|--------------------------<12>-|
|---------------<12>------------|
|----------<12>-------<12>------|
|-----<12>----------------------|
|-------------------------------|
|-12----------------------------|


                                            A7+5
    +E     Q     E    +E     E    E    E    E  E   E   E   Q    E   E
|-(<12>)----------------------------------|------------------------<7>--|
|--------<12>-----------------------------|---------------<7>-----------|
|--------------<12>-(<12>)----------------|-----------<7>------<7>------|
|--------------------------<12>-----------|-------<7>-------------------|
|-------------------------------<12>------|---<7>-----------------------|
|------------------------------------<12>-|-----------------------------|


                                        D7+5
                                                PM-----------------|
   +E    E   E    E    E   E   E   E      E     E    E    E    Q     E   E
|-(<7>)-<5>---------------------------|----------------------------------0-|
|-----------<5>-------<7>-------------|----------------------<12>----------|
|---------------(<0>)-----<7>---------|-----------------<12>-------<12>----|
|-----------------------------<7>-----|------------<12>--------------------|
|---------------------------------<7>-|-------<12>-------------------------|
|-------------------------------------|-<12>-------------------------------|
|
| Gtr II
|                              <
|                                                                    ~~~~~~~
|   H                  Q       Q         +H.                        +Q
|-------------------------------------|------------------------------------|
|-------------------------------------|------------------------------------|
|-----------------------------<7>-----|-(<7>)----------------------(<7>)---|
|-------------------------------------|------------------------------------|
|-------------------------------------|------------------------------------|
|-------------------------------------|------------------------------------|


   +E     Q     E    +E     E    E    E
|--(0)-----------------------------------|
|-------<12>-----------------------------|
|-------------<12>-(<12>)----------------|
|-------------------------<12>-----------|
|------------------------------<12>------|
|-----------------------------------<12>-|
|
|~~~~~~~
|  +H                +H
|----------------------------------------|
|----------------------------------------|
|-(<7>)-------------(<7>)----------------|
|----------------------------------------|
|----------------------------------------|
|----------------------------------------|


  A7+5
    E    E   E   E   Q    E   E     +E    E   E   E   E   E   E   E
|----------------------------<7>-|-(<7>)-----------------------------|
|-------------------<7>----------|-------<7>-----<5>-----------------|
|---------------<7>------<7>-----|-----------<7>-----<7>-----<7>-----|
|-----------<7>------------------|-------------------------------<7>-|
|-------<7>----------------------|-----------------------<7>---------|
|--<7>---------------------------|-----------------------------------|
|
|  +E    E   Q       H               W
|--------------------------------|-----------------------------------|
|--------------------------------|-----------------------------------|
|-(<7>)--------------------------|-----------------------------------|
|--------------------------------|-----------------------------------|
|--------------------------------|-----------------------------------|
|--------------------------------|-----------------------------------|


  D7+5
    E     E     E    E    Q     E    E
|----------------------------------<12>-|
|-----------------------<12>------------|
|------------------<12>-------<12>------|
|-------------<12>----------------------|
|------(<12>)---------------------------|
|-<12>----------------------------------|
|
|   W
|---------------------------------------|
|---------------------------------------|
|---------------------------------------|
|---------------------------------------|
|---------------------------------------|
|---------------------------------------|


    +E     Q      E    +E     E    E    E
|-(<12>)-----------------------------------|
|--------<12>------------------------------|
|---------------<12>-(<12>)----------------|
|---------------------------<12>-----------|
|--------------------------------<12>------|
|-------------------------------------<12>-|
|
|                 <
|                       \1__________________
|    Q        E   E    +H
|------------------------------------------|
|------------------------------------------|
|----------------<7>--(<7>)----------------|
|------------------------------------------|
|------------------------------------------|
|------------------------------------------|


                                           G5    F5D5F5        D5
    E      E   E   E   Q    E   E     +E     E   E E   Q     E E
|------------------------------<7>-|-(<7>)-----------------------|
|---------------------<7>----------|-----------------------------|
|-----------------<7>------<7>-----|-----------------------------|
|-------------<7>------------------|-----------------------------|
|---------<7>----------------------|---------5s==3p0--/3----/3-0-|
|----------------------------------|---------5s==3p0--/3----/3-0-|
|
|   \2.5__________________________________________________________
|                                      ~~~~~~~~~~~~~~~~~~~~
|  +W                                 +E    +Q.       +H
|----------------------------------|-----------------------------|
|----------------------------------|-----------------------------|
|-(<7>)----------------------------|-(<7>)-(<7>)-----(<7>)-------|
|----------------------------------|-----------------------------|
|----------------------------------|-----------------------------|
|----------------------------------|-----------------------------|


  D7+5
    Q           E    E    Q     E    E
|----------------------------------<12>-|
|-----------------------<12>------------|
|-----------------------------<12>------|
|------------------<12>-----------------|
|---------------------------------------|
|-------------<12>----------------------|
|
|   /
|  +E    +E     Q         H
|---------------------------------------|
|---------------------------------------|
|-(<7>)-(<7>)---------------------------|
|---------------------------------------|
|---------------------------------------|
|---------------------------------------|


                                 A7+5
    +H      a   Q     E    E       E      E    E    E    Q     E   E
|-(<12>)----0h<12>-------------|----------------------------------<7>--|
|------------------------------|------------------------<7>------------|
|-------------------<12>-------|-------------------<7>--------<7>------|
|------------------------<12>--|--------------<7>----------------------|
|------------------------------|---------<7>---------------------------|
|------------------------------|--<7>----------------------------------|
|
|                          \2______/1.5________/1_______________________
|                                                        ~~~~~
|    H          Q     E    E      +Q          +Q        +H
|------------------------------|---------------------------------------|
|-------------------------<7>--|-(<7>)-------(<7>)-----(<7>)-----------|
|------------------------------|---------------------------------------|
|------------------------------|---------------------------------------|
|------------------------------|---------------------------------------|
|------------------------------|---------------------------------------|


          G5    F5D5F5       D5  D7+5
   +E       E   E E   Q    E E   E   E    E    E    Q     E    E
|-(<7>)------------------------|-----------------------------<12>-|
|------------------------------|------------------<12>------------|
|------------------------------|------------------------<12>------|
|------------------------------|-------------<12>-----------------|
|-----------5s==3-0--/3----3-0-|----------------------------------|
|-----------5s==3-0--/3----3-0-|---<12>-<12>----------------------|
|
|   \2.5____\6
|   ~~~~~~~~~~~~~~~~~~~~~~
|  +E      +Q.       +H          W
|------------------------------|----------------------------------|
|-(<7>)---(<7>)-----(<7>)------|----------------------------------|
|------------------------------|----------------------------------|
|------------------------------|----------------------------------|
|------------------------------|----------------------------------|
|------------------------------|----------------------------------|
|
| Gtr III
|   W                            W
|------------------------------|----------------------------------|
|------------------------------|----------------------------------|
|------------------------------|----------------------------------|
|------------------------------|----------------------------------|
|------------------------------|----------------------------------|
|------------------------------|----------------------------------|


                                               A7+5
    +E     Q     E    +E     E    E    E         E      E   E    E    Q    E   E
|-(<12>)-------------------------------------|--------------------------------<7>---|
|--------<12>--------------------------------|-----------------------<7>------------|
|--------------<12>-(<12>)-------------------|-----------------(<7>)------<7>-------|
|--------------------------<12>--------------|-------------<7>----------------------|
|-------------------------------<12>---------|---------<7>--------------------------|
|------------------------------------<12>----|--<7>---------------------------------|
|
|                                      \2.5__________________________________________
|    H                 Q          E    E        +W
|--------------------------------------------|--------------------------------------|
|--------------------------------------------|--------------------------------------|
|-------------------------------------<7>----|-(<7>)--------------------------------|
|--------------------------------------------|--------------------------------------|
|--------------------------------------------|--------------------------------------|
|--------------------------------------------|--------------------------------------|
|
|                                      \0.5______\1.5________________________________
|    H                 Q          E    E        +W
|--------------------------------------------|--------------------------------------|
|-------------------------------------<7>----|-(<7>)--------------------------------|
|--------------------------------------------|--------------------------------------|
|--------------------------------------------|--------------------------------------|
|--------------------------------------------|--------------------------------------|
|--------------------------------------------|--------------------------------------|


          G5F5D5F5        D5        D7+5
   +E     E E E  Q    E   E     E     E    E    E    Q     E    E
|-(<7>)---------------------|---------------------------------<12>-|
|---------------------------|----------------------<12>------------|
|---------------------------|-------<12>---------------------------|
|---------------------------|-------<12>-----------------<12>------|
|---------5s3-0-/3----3---0-|------------<12>----------------------|
|---------5s3-0-/3----3---0-|-----------------<12>-----------------|
|
|   \7______________________________________________________________
|  +W                          +E     E    Q         H
|---------------------------|--------------------------------------|
|---------------------------|--------------------------------------|
|-(<7>)---------------------|-(<7>)--------------------------------|
|---------------------------|--------------------------------------|
|---------------------------|--------------------------------------|
|---------------------------|--------------------------------------|
|
|   \2.5______________|
|  +H.               +Q         W
|---------------------------|--------------------------------------|
|-(<7>)-------------(<7>)---|--------------------------------------|
|---------------------------|--------------------------------------|
|---------------------------|--------------------------------------|
|---------------------------|--------------------------------------|
|---------------------------|--------------------------------------|


    +E    Q     E    +Q      Q
|-(<12>)-------------------------|
|--------<0>---------------------|
|-------------<12>-(<12>)--<12>--|
|--------------------------------|
|--------------------------------|
|--------------------------------|
|
|    W
|--------------------------------|
|--------------------------------|
|--------------------------------|
|--------------------------------|
|--------------------------------|
|--------------------------------|
|
|    W
|--------------------------------|
|--------------------------------|
|--------------------------------|
|--------------------------------|
|--------------------------------|
|--------------------------------|


  A7+5                               G5F5    G5F5G5
  E  E   E   E   Q    E   E     +E   E E E E E E   E
|------------------------<7>-|-(<7>)-------------------|
|---------------<7>----------|-------------------------|
|-----------<7>------<7>-----|---------------------5---|
|-------<7>------------------|-------5-3---3s5s3---5---|
|---<7>----------------------|-------5-3---3s5s3---5---|
|----------------------------|-------5-3p0-3s5s3---5---|
|
|                     /
| H              Q    Q         +H..              +E
|----------------------------|-------------------------|
|----------------------------|-------------------------|
|--------------------<7>-----|-(<7>)-------------(<7>)-|
|----------------------------|-------------------------|
|----------------------------|-------------------------|
|----------------------------|-------------------------|


    G7F#G7+5F#G7F#7+F7+5E7F7E7F7E7D7+5
  E E E E E E E E   E E E E E E E E
|-----------------|-----------------||
|---5p4h5-5p4-5p4s|=3-3p2-3p2-3p2p0-||
|---5p4h5-5p4-5p4s|=3-3p2-3p2-3p2p0-||
|---5p4h5-5p4-5p4s|=3-3p2-3p2-3p2p0-||
|-----------------|-----------------||
|-----------------|-----------------||
|
| W                 W
|-----------------|-----------------||
|-----------------|-----------------||
|-----------------|-----------------||
|-----------------|-----------------||
|-----------------|-----------------||
|-----------------|-----------------||


 Verse
  Dsus2sus4   D
    PM|   PM|   PM--------|     PM---
  E E E E E E E E   E E E E E E E E
|-----------------|-----------------|
|-7-----7-----6---|---------6-6-----|
|-7-----7-----5---|---------5-5-----|
|-7-----7-----7---|---------7-7-----|
|---5-5---5-5---5-|-5-5-5-5-----5-5-|
|-----------------|-----------------|


  G7
 -----|
                     |-3-| |-3-| |-3-| |-3-|
  E E E E +E  Q  E   E E E E E E E E E E E E
|------------------|-------------------------|
|-------5-(5)-5----|-------4---------3-3-----|
|-------5-(5)-5----|-----------------3-3-----|
|-5-5-5----------0-|-3h5-5---3p0-0h3-----2p0-|
|------------------|-------------------------|
|------------------|-------------------------|


  Dsus2sus4   D
    PM|   PM|   PM--------|     PM|
  E E E E E E E E   E E E E E E E E
|-----------------|-----------------|
|-7-----7-----6---|---------6-6-----|
|-7-----7-----5---|---------5-5-----|
|-7-----7-----7---|---------7-7-----|
|---5-5---5-5---5-|-5-5-5-5-----5-5-|
|-----------------|-----------------|


  G7
    PM|
                     |-3-| |-3-| |-3-| |-3-|
  E E E E +E  Q  E   E E E E E E E E E E E E
|------------------|-------------------------|
|-5-----5-(5)-5----|-------4---------3-3-----|
|-5-----5-(5)-5----|-----------------3-3-----|
|---5-5----------0-|-3h5-5---3p0-0h3-----2p0-|
|------------------|-------------------------|
|------------------|-------------------------|


  Dsus2sus4   D                       G7+5                F        E5  D5
    PM|   PM|   PM--------|     PM--------|
  E E E E E E E E   E E E E E E E E   E E E E +E  E E E   E E Q  E E E E
|-----------------|-----------------|-------------------|----------------||
|-7-----7-----6---|---------6-6-----|-------5-(5)-5-4-4-|---4-3--3-------||
|-7-----7-----5---|---------5-5-----|-------5-(5)-5-3-3-|-3-3-3--3s2-2p0-||
|-7-----7-----7---|---------7-7-----|-5-5-5-------------|-3---3--3s2-2p0-||
|---5-5---5-5---5-|-5-5-5-5-----5-5-|-------------------|----------------||
|-----------------|-----------------|-------------------|----------------||


 Chorus
    Gsus2sGs4           Dsus2sus4 D         Fsus2sFs4        C     CsusCsus4
              PM---|      PM|   PM                   PM--|     PM|
  E  Q.    E  E  E  E   E E E E E Q  E    E  Q.    E E E E   E E E E E Q   E
|---------------------|----------------|-------------------|------------------|
|---12----11----------|-------7---6----|----10-----9-------|-4-----5---4------|
|---12----10----------|-7-----7---5----|----10-----8-------|-3-----5---3------|
|---12----12----------|-7-----7---7--7s|=10-10----10-------|-5-----5---5------|
|---10----10-10-10-10-|---5-5---5-5--5s|==8--8-----8-8-8-5-|-3-3-3-3---3--/8s=|
|---------------------|----------------|-------------------|------------------|


     Gsus2sGs4           Esus2sus4 E
               PM---|      PM|   PM
   E  Q.    E  E  E  E   E E E E E Q.
|----------------------|----------------|
|----12----11----------|-9-----9---8----|
|----12----10----------|-9-----9---7----|
|----12----12----------|-9-----9---9----|
|-10-------10-10-10-10-|---7-7---7-7----|
|----------------------|----------------|


    Fsus2sFs4   Gsus2suG4   Asus2susA   D5
  E  Q.    Q  E  E   E  E E  E  +E   Q  E
|------------------|----------------------||
|---10-----9----12-|---11---14-(14)-13----||
|---10-----8----12-|---10---14-(14)-12--0-||
|---10----10----12-|---12---14-(14)-14--0-||
|----8-----8----10-|---10---12-(12)-12----||
|------------------|----------------------||


 Chorus Tag
  D7+5
  E   Q     E    Q     E    E      +E     Q     E    +E     E    E    E
|-------------------------<12>-|-(<12>)----------------------------------|
|--------------<12>------------|--------<12>-----------------------------|
|--------------------<12>------|--------------<12>-(<12>)----------------|
|------------------------------|--------------------------<12>-----------|
|---------<12>-----------------|-------------------------------<12>------|
|---<12>-----------------------|------------------------------------<12>-|
|
| Gtr II
|                <                  >
| H              H                 +W
|------------------------------|-----------------------------------------|
|----------------3-------------|---(3)-----------------------------------|
|----------------2-------------|---(2)-----------------------------------|
|----------------0-------------|---(0)-----------------------------------|
|------------------------------|-----------------------------------------|
|------------------------------|-----------------------------------------|


  A7+5                                 G5F5D5E5F5   D5
   E   E   E   E   Q    E   E     +E   E E E E E  E E
|--------------------------<7>-|-(<7>)----------------|
|-----------------<7>----------|----------------------|
|-------------<7>------<7>-----|----------------------|
|---------<7>------------------|-------5s3p0-2s3-/3-0-|
|-----<7>----------------------|-------5s3p0-2s3-/3-0-|
|-<7>--------------------------|-------5s3p0-2s3-/3-0-|
|
|                  <               >
|  H               H              +Q     Q   H
|------------------------------|----------------------|
|------------------5-----------|--(5)-----------------|
|------------------2-----------|--(2)-----------------|
|------------------------------|----------------------|
|------------------------------|----------------------|
|------------------------------|----------------------|


  D7+5
  E   E    E    E    Q     E    E      +E     Q     E    +E     E    E    E
|-----------------------------<12>-|-(<12>)----------------------------------|
|------------------<12>------------|--------<12>-----------------------------|
|------------------------<12>------|--------------<12>-(<12>)----------------|
|-------------<12>-----------------|--------------------------<12>-----------|
|---<12>-<12>----------------------|-------------------------------<12>------|
|---<12>---------------------------|------------------------------------<12>-|
|
|                    <                  >
| H                  H                 +W
|----------------------------------|-----------------------------------------|
|--------------------3-------------|---(3)-----------------------------------|
|--------------------2-------------|---(2)-----------------------------------|
|--------------------0-------------|---(0)-----------------------------------|
|----------------------------------|-----------------------------------------|
|----------------------------------|-----------------------------------------|


  A7+5                                 G5F5D5E5F5   D5
   E   E   E   E   Q    E   E     +E   E E E E E  E E
|--------------------------<7>-|-(<7>)----------------|
|-----------------<7>----------|----------------------|
|-------------<7>------<7>-----|----------------------|
|---------<7>------------------|-------5s3p0-2s3-/3-0-|
|-----<7>----------------------|-------5s3p0-2s3-/3-0-|
|-<7>--------------------------|-------5s3p0-2s3-/3-0-|
|
|                  <               >
|  H               H              +Q     Q   H
|------------------------------|----------------------|
|------------------5-----------|--(5)-----------------|
|------------------2-----------|--(2)-----------------|
|------------------------------|----------------------|
|------------------------------|----------------------|
|------------------------------|----------------------|


  D7+5
  E   Q     E    Q     E    E
|-------------------------<12>-|
|--------------<12>------------|
|--------------------<12>------|
|------------------------------|
|---------<12>-----------------|
|---<12>-----------------------|
|
|                <
| H              H
|------------------------------|
|----------------3-------------|
|----------------2-------------|
|----------------0-------------|
|------------------------------|
|------------------------------|


                                            A7+5
    +E     Q     E    +E     E    E    E     E   E   E   E   Q    E   E
|-(<12>)----------------------------------|--------------------------<7>-|
|--------<12>-----------------------------|-----------------<7>----------|
|--------------<12>-(<12>)----------------|-------------<7>------<7>-----|
|--------------------------<12>-----------|---------<7>------------------|
|-------------------------------<12>------|-----<7>----------------------|
|------------------------------------<12>-|-<7>--------------------------|
|
|    >                                                       <
|   +W                                       H               H
|-----------------------------------------|------------------------------|
|---(3)-----------------------------------|------------------5-----------|
|---(2)-----------------------------------|------------------2-----------|
|---(0)-----------------------------------|------------------------------|
|-----------------------------------------|------------------------------|
|-----------------------------------------|------------------------------|


        G5F5D5F5G5F5G5    N.C.
   +E   E E E E E E E   E E E E E E E E   E E E E E E E E
|-(<7>)---------------|-----------------|-----------------||
|---------------------|---5p4h5-5p4-5p4s|=3-3p2-3p2-3p2---||
|---------------------|---5p4h5-5p4-5p4s|=3-3p2-3p2-3p2p0-||
|-------------3s5s3-5-|---5p4h5-5p4-5p4s|=3-3p2-3p2-3p2p0-||
|-------5-3-0-3s5s3-5-|-----------------|-----------------||
|-------5-3-0-3s5s3-5-|-----------------|-----------------||
|
|   >
|  +Q     Q   H         W                 W
|---------------------|-----------------|-----------------||
|--(5)----------------|-----------------|-----------------||
|--(2)----------------|-----------------|-----------------||
|---------------------|-----------------|-----------------||
|---------------------|-----------------|-----------------||
|---------------------|-----------------|-----------------||


 Verse
  Dsus2sus4   D
    PM|   PM|   PM--------|     PM---
  E E E E E E E E   E E E E E E E E
|-----------------|-----------------|
|-7-----7-----6---|---------6-6-----|
|-7-----7-----5---|---------5-5-----|
|-7-----7-----7---|---------7-7-----|
|---5-5---5-5---5-|-5-5-5-5-----5-5-|
|-----------------|-----------------|


  G7
 -----|
                     |-3-| |-3-| |-3-| |-3-|
  E E E E +E  Q  E   E E E E E E E E E E E E
|------------------|-------------------------|
|-------5-(5)-5----|-------4---------3-3-----|
|-------5-(5)-5----|-----------------3-3-----|
|-5-5-5----------0-|-3h5-5---3p0-0h3-----2p0-|
|------------------|-------------------------|
|------------------|-------------------------|


  Dsus2sus4   D
    PM|   PM|   PM--------|     PM|
  E E E E E E E E   E E E E E E E E
|-----------------|-----------------|
|-7-----7-----6---|---------6-6-----|
|-7-----7-----5---|---------5-5-----|
|-7-----7-----7---|---------7-7-----|
|---5-5---5-5---5-|-5-5-5-5-----5-5-|
|-----------------|-----------------|


  G7
    PM|
                     |-3-| |-3-| |-3-| |-3-|
  E E E E +E  Q  E   E E E E E E E E E E E E
|------------------|-------------------------|
|-5-----5-(5)-5----|-------4---------3-3-----|
|-5-----5-(5)-5----|-----------------3-3-----|
|---5-5----------0-|-3h5-5---3p0-0h3-----2p0-|
|------------------|-------------------------|
|------------------|-------------------------|


  Gsus2sus4   D                       G7+5  C   G7+5C       F7E7+5
    PM|   PM|   PM--------|     PM|
  E E E E E E E E   E E E E E E E E   E E E E E E E E   E E E E E  E  E E
|-----------------|-----------------|-----------------|-------------------||
|-7-----7-----6---|---------6-6-----|-5-5-5-4---5---4-|-4-4-3s2-2-----0-0-||
|-7-----7-----5---|---------5-5-----|-5-5-5-3---5---3-|-3-3-3s2-2--0p-0-0-||
|-7-----7-----7---|---------7-7-----|-5-5-5-----------|-----------h0------||
|---5-5---5-5---5-|-5-5-5-5-----5-5-|-----------------|-------------------||
|-----------------|-----------------|-----------------|-------------------||


 Chorus
    Gsus2sGs4           Dsus2sus4 D         Fsus2sFs4        Csus2Cus4
                                                                        Gtr IV
              PM---|      PM|   PM                   PM--|              TP
  E  Q.    E  E  E  E   E E E E E Q  E    E  Q.    E E E E   Q.   E +E  Q.
|---------------------|----------------|-------------------|-----------------|
|---12----11----------|-------7---6----|----10-----9-------|-5----4-(4)------|
|---12----10----------|-7-----7---5----|----10-----8-------|-5----3-(3)------|
|---12----12----------|-7-----7---7--7s|=10-10----10-------|-5----5-(5)-xs===|
|---10----10-10-10-10-|---5-5---5-5--5s|==8--8-----8-8-8-5-|-3----3-(3)-xs===|
|---------------------|----------------|-------------------|-----------------|


     Gsus2sGs4           Esus2sus4 E        Fsus2sFs4   Gsus2sus4
     Gtr I
  TP           PM---|      PM|   PM
  E   Q.    E  E  E  E   E E E E E Q.     E  Q.    Q  E  E
|----------------------|----------------|------------------|
|----12----11----------|-9-----9---8----|---10-----9----12-|
|----12----10----------|-9-----9---7----|---10-----8----12-|
|-x\-12----12----------|-9-----9---9----|---10----10----12-|
|-x\-10----10-10-10-10-|---7-7---7-7----|----8-----8----10-|
|----------------------|----------------|------------------|


                         Guitar Solo
    G    A                E5
  Gtr II
                            \1.5______________________/
                                     ~~~~~~~~~~~~~~~~~~~~~
  H           E   Q.       +Q       +H         +E    +E
|----------------------||---------------------------------|
|----------------------||---------------------------------|
|----------------<5>---||-(<5>)----(<5>)------(<5>)-(<5>)-|
|----------------------||---------------------------------|
|----------------------||---------------------------------|
|----------------------||---------------------------------|
|
| Gtr I
|                           PM             PM         PM
| E  E E  E  +E   Q.        Q        E   E Q    E     E
|----------------------||---------------------------------|
|---11---14-(14)-13\---||---------------------------------|
|---10---14-(14)-12\---||---------------------------------|
|---10---14-(14)-14\---||---------------------------------|
|---10---12-(12)-12\---||---2--------x---x-2----x-----2---|
|----------------------||---2--------x---x-2----x-----2---|


        D5       E5      D5     G5    E5
         \1.5/     \1.5/         /1.5____
   +E    Q        +E      +Q     Q
|---------------------------------------|
|---------------------------------------|
|-(<5>)-12-------(12)----(12)---<9>-----|
|---------------------------------------|
|---------------------------------------|
|---------------------------------------|
|
|        PM---------------------|
|   E    E     E   E       E  E  q
|---------------------------------------|
|---------------------------------------|
|---------------------------------------|
|---------------------------------------|
|--------0-----2---0-------5--5--2------|
|--------0-----2---0-------5--5--2------|


                                                     D5
              |
                                           ~~~~~~
              |-3-|
   +H         E E E E  E     +E    E      +H         E E
|-------------------------|------------------------------|
|-------------------------|--------------------------8---|
|-(<9>)-------9-7---7-[9]-|-([9])-[7]b9==([7])r--------x-|
|-----------------9-------|----------------------------x-|
|-------------------------|------------------------------|
|-------------------------|------------------------------|
|
|             PM       PM          PM           PM-----|
|   E   E E E Q     E  E     +e    E       E    E Q  E E
|-------------------------|------------------------------|
|-------------------------|------------------------------|
|-------------------------|------------------------------|
|-------------------------|------------------------------|
|---x---x-x-x-2-----x--2--|--(2)---2--------------2--0-0-|
|---x---x-x-x-2-----x--2--|--(2)---2------------0-2--0-0-|


   e S  S  +e   E  S  S  S  S   E  S  S
|-12---13-(13)-15-13h15p13p12-------------|
|-----------------------------h15-13h15p==|
|-----------------------------------------|
|-----------------------------------------|
|-----------------------------------------|
|-----------------------------------------|
|
|               PM|                PM
|  E E      E   E  Q            E  E
|-----------------------------------------|
|-----------------------------------------|
|-----------------------------------------|
|-----------------------------------------|
|--x-x------x---0--0------------x--0------|
|--x-x------x---0--0------------x--0------|


             F5    E5
   Q    S  S  S  S  E  S  S  E  S  S
|------------------------------------|
|-13---12-------------12-------------|
|---------15p12h15p14----15-14p12h14-|
|------------------------------------|
|------------------------------------|
|------------------------------------|
|
|    PM             PM---------|
|  E E  E     E     Q        E  E
|------------------------------------|
|------------------------------------|
|------------------------------------|
|------------------------------------|
|----0--------x-----3--------2--2----|
|----0--------x-----3--------2--2----|


             D5 E5
   +S      S  S  S     +S   S  E  +E      S  s S  S  S      +S
|------------12------------12-15-(15)b17-12------12--------------|
|---------12----15b17-(15)------------------12------15b17==(15)--|
|-(14)b16--------------------------------------------------------|
|----------------------------------------------------------------|
|----------------------------------------------------------------|
|----------------------------------------------------------------|
|
|                       PM--------------------------|
|   Q                   E      E   Q           E     E
|----------------------------------------------------------------|
|----------------------------------------------------------------|
|----------------------------------------------------------------|
|----------------------------------------------------------------|
|-----------------------0------2---2-----------2-----2-----------|
|-----------------------0------2---2-----------2-----2-----------|


                                         D5
                                      ~~~~~~~~
   +S   +S    E  S     S  E  E       +Q.
|------------------------12------------------|
|-(15)-(15)rp12-------12---------------------|
|---------------14b16-------14pb17==(14)-----|
|--------------------------------------------|
|--------------------------------------------|
|--------------------------------------------|
|
|                            PM------------|
|   E         E  E        E  Q           E E
|--------------------------------------------|
|--------------------------------------------|
|--------------------------------------------|
|--------------------------------------------|
|-------------x--x--------x--2-----------0-0-|
|-------------x--x--------x--2-----------0-0-|


                                         E5              F5  E5
                        \1 \1/     \1/   \1/   \1/   \1/ \1/   \1/
 ~~~~~~~~
                   |-3--|          |-----3-----|     |----3----|
   +Q     a a Q   +E  E E  Q       Q     Q     Q     Q   Q     Q
|--------------------------------|------------------------------------|
|-----------3h5---(5)p3p0--3h====|=5p====3h====5p====3h==5p====3h=====|
|-(14)r\--3----------------------|------------------------------------|
|--------------------------------|------------------------------------|
|--------------------------------|------------------------------------|
|--------------------------------|------------------------------------|
|
|                  PM          PM      PM          PM--------------|
|   Q         E E  q       E   E   E   E     E     E Q       E     E
|--------------------------------|------------------------------------|
|--------------------------------|------------------------------------|
|--------------------------------|------------------------------------|
|--------------------------------|------------------------------------|
|-------------x-x--0-------x---0-|-----2-------------3-------2-----2--|
|-------------x-x--0-------x---0-|-----2-----------0-3-------2-----2--|


  D5    E5                  D5     E5                 D5
  \1/   \1/   \1/   \1/ \1/    \1/
                                              ~~~       T       T
  |-----3-----|     |----3-----|                        |---3---|
  Q     Q     Q     Q   Q     +Q       +Q    +H         E E     E
|------------------------------------|----------------/12p6---/14p|
|-5p====3h====5p====3p==0-----(0)----|-(0)---(0)------------------|
|------------------------------------|----------------------------|
|------------------------------------|----------------------------|
|------------------------------------|----------------------------|
|------------------------------------|----------------------------|
|
| PM-------------------------------|       PM    PM---------|
| E   E     E     E q       E      E    E  E  E  E Q    E   E
|------------------------------------|----------------------------|
|------------------------------------|----------------------------|
|------------------------------------|----------------------------|
|------------------------------------|----------------------------|
|-0---2-----2-----2-2-------0------2-|-----2-------2----0---0-----|
|-0---2-----2-----2-2-------0------2-|-----2-----0-2----0---0-----|


      T     T        T      T      T
  |--3--|   |---3----|  |--3---|
  E   E E   E  E     E  E   E  E   E  E
|-8-/16p9-/17p10---/18p11-/19p13-/20-15p=|
|----------------------------------------|
|----------------------------------------|
|----------------------------------------|
|----------------------------------------|
|----------------------------------------|
|
|                PM----|              PM
| Q         E    E      q          E  E
|----------------------------------------|
|----------------------------------------|
|----------------------------------------|
|----------------------------------------|
|-----------x----0------0----------x--0--|
|-----------x----0------0----------x--0--|


     E5       F5    E5
                             |--3---|                 |---3----|
   E  E  S  S  S  S  Q      +E   E  E    S   S  S  S  E     E  E  S  E.    +S   S E
|-14h15p14p12----12-------------------|-----------------------12--------------------|
|-------------15----15b17r=(15)p12----|-17p=12-15p12-------12----15-----------------|
|----------------------------------15-|--------------14b16----------14b16r(14)p12---|
|-------------------------------------|---------------------------------------------|
|-------------------------------------|---------------------------------------------|
|-------------------------------------|---------------------------------------------|
|
|     PM-------------------|
|  E  E  E     E     Q       Q          +W
|-------------------------------------|---------------------------------------------|
|-------------------------------------|---------------------------------------------|
|-------------------------------------|---------------------------------------------|
|-------------------------------------|---------------------------------------------|
|-----2--------------3s======2--------|-(2)-----------------------------------------|
|-----2--------0-----3-------2--------|-(2)-----------------------------------------|


  F6add2
   |--3---|                               |--3--|
   E  E   E  E      +S   +S      +Q       E  E  E
|----------------------------------------12----14b15-|
|-12----------------------------------------12-------|
|----12-----14b16==(14)r(14)b16-(14)\----------------|
|----------------------------------------------------|
|----------------------------------------------------|
|----------------------------------------------------|
|
|  E    E    E       E           +E   Q.
|--------------------0-----------(0)-----------------|
|-------------------------------------0--------------|
|------------0---------------------------------------|
|-------5--------------------------------------------|
|----------------------------------------------------|
|--3-------------------------------------------------|


  Gsus2sus4
    |--3---|
   +E   E  E  E     S  S  +S   E.        +E   S  S
|-(14)-12----15b16-12---------15b17=====(15)r15p14-|
|---------12----------12-(12)----------------------|
|--------------------------------------------------|
|--------------------------------------------------|
|--------------------------------------------------|
|--------------------------------------------------|
|
|   Q         E     E     +E         Q.
|-------------------0-----(0)----------------------|
|------------------------------------0-------------|
|-------------0------------------------------------|
|--------------------------------------------------|
|--/5----------------------------------------------|
|--/5----------------------------------------------|


  Amadd4
                              \0.25____/
                              |------3------|
   +S   S E  e  e  S   E.     E       +E   +E
|-(14)-15---14-12------------12------(12)-(12)-|
|---------------------15-----------------------|
|----------------------------------------------|
|----------------------------------------------|
|----------------------------------------------|
|----------------------------------------------|
|
|   Q        E  E +E      Q.
|---------------0-(0)--------------------------|
|-------------------------0--------------------|
|------------0---------------------------------|
|----------------------------------------------|
|---7------------------------------------------|
|---7------------------------------------------|


  Bb5
  Gtr II
   T        T         T                  T
   |3|         |3|          |-3--|
   E S S T  T  E S S  T  T  S  S S  S S  S  S S  S
|--------------------------------------------------|
|-12p7p5h8-11s15p9p7-16s15s14s13p9h10p9-13s17p9h12-|
|--------------------------------------------------|
|--------------------------------------------------|
|--------------------------------------------------|
|--------------------------------------------------|
|
| Gtr III
|  W
|--------------------------------------------------|
|--------------------------------------------------|
|--------------------------------------------------|
|--------------------------------------------------|
|--------------------------------------------------|
|--------------------------------------------------|
|
| Gtr I
|      PM----------|                PM        PM
|  E   E       E   E        E       E    E    E
|--------------------------------------------------|
|--------------------------------------------------|
|--------------------------------------------------|
|--8---------------8--------8------------8---------|
|--8-----------8---8--------8------------8---------|
|--8---8-------8---8--------8-------8----8----8----|


   T              T           T                 T
                     |3-|
   T  T  T  T  S  S  E  S  S  a  S  S  S  E  E  a  e
|----------------------------------------------------|
|-17s16s15s14p11-14s20p11h14-20s22p14h16-------20s22-|
|----------------------------------------------------|
|----------------------------------------------------|
|----------------------------------------------------|
|----------------------------------------------------|
|
|  H                                E     Q.
|----------------------------------------------------|
|----------------------------------------------------|
|----------------------------------------<5>---------|
|----------------------------------------------------|
|----------------------------------------------------|
|----------------------------------------------------|
|
|              PM          PM
|  E           E     E     E        E     E  E     E
|----------------------------------------------------|
|----------------------------------------------------|
|----------------------------------------------------|
|--8-----------------8--------------8-----8--8-----8-|
|--8-----------------8--------------8-----8--8-----8-|
|--8-----------8-----8-----8--------8-----8--8-----8-|


  N.C.
  Gtr III
    \7
    ~~~~~~~~~~~~~~~~~~~~~~~~~~
   +W                    +W
|---------------------|---------------------||
|---------------------|---------------------||
|-(<5>)---------------|-(<5>)---------------||
|---------------------|---------------------||
|---------------------|---------------------||
|---------------------|---------------------||
|
| Gtr I
|   E   E E E E E E E     E   E E E E E E E
|---------------------|---------------------||
|-------5p4h5-5p4-5p4s|===3---3p2-3p2-3p2p0-||
|-------5p4h5-5p4-5p4s|===3---3p2-3p2-3p2p0-||
|-------5p4h5-5p4-5p4s|===3---3p2-3p2-3p2p0-||
|---------------------|---------------------||
|---------------------|---------------------||


 Verse
  Dsus2sus4   D
  W                 W
|-----------------|-----------------|
|-----------------|-----------------|
|-----------------|-----------------|
|-----------------|-----------------|
|-----------------|-----------------|
|-----------------|-----------------|
|
|   PM|   PM|   PM--------|     PM|
| E E E E E E E E   E E E E E E E E
|-----------------|-----------------|
|-7-----7-----6---|---------6-6-----|
|-7-----7-----5---|---------5-5-----|
|-7-----7-----7---|---------7-7-----|
|---5-5---5-5---5-|-5-5-5-5-----5-5-|
|-----------------|-----------------|


  G7
  Gtr I
  PM--|
                     |-3-| |-3-| |-3-| |-3-|
  E E E E +E  Q  E   E E E E E E E E E E E E
|------------------|-------------------------|
|-------5-(5)-5----|-------4---------3-3-----|
|-------5-(5)-5----|-----------------3-3-----|
|-5-5-5----------0-|-3h5-5---3p0-0h3-----2p0-|
|------------------|-------------------------|
|------------------|-------------------------|


  Dsus2sus4   D
    PM|   PM|   PM--------|     PM|
  E E E E E E E E   E E E E E E E E
|-----------------|-----------------|
|-7-----7-----6---|---------6-6-----|
|-7-----7-----5---|---------5-5-----|
|-7-----7-----7---|---------7-7-----|
|---5-5---5-5---5-|-5-5-5-5-----5-5-|
|-----------------|-----------------|


  G7
    PM|
                     |-3-| |-3-| |-3-| |-3-|
  E E E E +E  Q  E   E E E E E E E E E E E E
|------------------|-------------------------|
|-5-----5-(5)-5----|-------4---------3-3-----|
|-5-----5-(5)-5----|-----------------3-3-----|
|---5-5----------0-|-3h5-5---3p0-0h3-----2p0-|
|------------------|-------------------------|
|------------------|-------------------------|


  Dsus2sus4   D
    PM|   PM|            PM|   PM
  E E E E E E Q    +E  E E E E E q
|----------------|------------------|
|-7-----7-----6--|-(6)-------6---6--|
|-7-----7-----5--|-(5)-------5---5--|
|-7-----7-----7--|-(7)-7-----7---7--|
|---5-5---5-5----|-----5-5-5---5----|
|----------------|------------------|


                                      Chorus
  Csus2sus4                   C          Gsus2sGs4           Dsus2sus4 D
    PM|                                            PM---|      PM|   PM
                     |-3-|
  E E E E +E  Q  E   E E E Q  Q  Q     E  Q.    E  E  E  E   E E E E E Q  E
|------------------|----------------||---------------------|------------------|
|-5-----5-(5)-5----|-------5--4--4--||---12----11----------|-------7---6------|
|-5-----5-(5)-5----|-----3----3--3--||---12----10----------|-7-----7---5------|
|---5-5------------|---5------------||---12----12----------|-7-----7---7--7s==|
|----------------3-|-3--------------||---10----10-10-10-10-|---5-5---5-5--5s==|
|------------------|----------------||---------------------|------------------|


     Fsus2sFs4         C  Csus2sCs4        Gsus2sGs4           Esus2sus4 E
              Gtr IV   Gtr I
              TP                                     PM---|      PM|   PM
   E  Q.    E Q.     E Q  E +E  Q   E    E  Q.    E  E  E  E   E E E E E Q.
|------------------|------------------|----------------------|----------------||
|----10-----9------|---4--5-(5)-4-----|----12----11----------|-9-----9---8----||
|----10-----8------|---3--5-(5)-3-----|----12----10----------|-9-----9---7----||
|-10-10----10------|---5--5-(5)-5-----|----12----12----------|-9-----9---9----||
|--8--8-----8-x\---|---3--3-(3)-3--/8s|=10-------10-10-10-10-|---7-7---7-7----||
|------------------|------------------|----------------------|----------------||


 Outro
    Fsus2sFs4       G      Gsus2sus4     G         Fsus2sFs4       G
  E  Q.    E +E   E  E   E  Q.    +E   E  E  E   E  Q.    E  E   E  E
|----------------------|-----------------------|----------------------|
|---10-----9--------11-|---12----(12)-12-11----|---10-----9--------11-|
|---10-----8--------10-|---12----(12)-12-10-10-|---10-----8--------10-|
|---10----10--------12-|---12----(12)-12-12-12-|---10----10--------12-|
|----8-----8-(8)s10----|---10----(10)-10-10-10-|----8-----8-(8)h10----|
|----------------------|-----------------------|----------------------|


    Gsus2sus4        G        Fsus2sFs4       Gsus2suG4   Asus2susA   D5
        PM
  E  E  E  E  +E   E  Q     E  Q.    E +E   E  E   E  E E  E  +E   Q  E
|-------------------------|----------------------|----------------------||
|---12----12-(12)-12-11\--|---10-----9--------12-|---11---14-(14)-13----||
|---12----12-(12)-12-10\--|---10-----8--------12-|---10---14-(14)-12----||
|---12----12-(12)-12-12\--|---10----10--------12-|---12---14-(14)-14--0-||
|------10------------10\--|----8-----8-(8)s10----|---10---12-(12)-12--0-||
|-------------------------|----------------------|--------------------0-||


  Free Time Q=124
                             T
  +W           +W            W           +Q   Q  H
|------------|------------|------------|--------------*|
|------------|------------|------------|--------------*|
|------------|------------|------------|--------------*|
|-(0)--------|-(0)--------|-(0)--------|-(0)----------*|
|-(0)--------|-(0)--------|-(0)--------|-(0)----------*|
|-(0)--------|-(0)--------|--0---------|-(0)----------*|


Duration Legend
---------------
W - whole; H - half; Q - quarter; E - 8th; S - 16th; T - 32nd; X - 64th; a - acciaccatura
+ - note tied to previous; . - note dotted; .. - note double dotted
Uncapitalized letters represent notes that are staccato (1/2 duration)
Irregular groupings are notated above the duration line
Duration letters will always appear directly above the note/fret number it represents the
duration for.  Duration letters with no fret number below them represent rests.  Multi-
bar rests are notated in the form Wxn, where n is the number of bars to rest for.  Low
melody durations appear below the staff

Tablature Legend
----------------
 h   - hammer-on
 p   - pull-off
 b   - bend
 pb  - pre-bend
 r   - bend release (if no number after the r, then release immediately)
 /\  - slide into or out of (from/to "nowhere")
 s   - legato slide
 S   - shift slide
  - natural harmonic
[n]  - artificial harmonic
n(n) - tapped harmonic
 ~   - vibrato
 tr  - trill
 T   - tap
 TP  - trem. picking
 PM  - palm muting
\n/  - tremolo bar dip; n = amount to dip
 \n  - tremolo bar down
 n/  - tremolo bar up
/n\  - tremolo bar inverted dip
 =   - hold bend; also acts as connecting device for hammers/pulls
 <>  - volume swell (louder/softer)
 x   - on rhythm slash represents muted slash
 o   - on rhythm slash represents single note slash

Misc Legend
-----------
 |  - bar
||  - double bar
||o - repeat start
o|| - repeat end
*|  - double bar (ending)
 :  - bar (freetime)
 $  - Segno
 &  - Coda
Tempo markers -  = BPM(8/16=s8/s16), where s8 = swing 8ths, s16 = swing 16ths


***************************************************************************************
* Generated using Power Tab Editor by Brad Larsen - http://powertab.guitarnetwork.org *
***************************************************************************************
Tap to rate this tab
# A B C D E F G H I J K L M N O P Q R S T U V W X Y Z