Song name
# A B C D E F G H I J K L M N O P Q R S T U V W X Y Z

Van Halen - Women In Love tab

This took me like 2 hours to figure out, and im not 100% sure of its correctness, im 
90% sure, but it sounds pretty good and I havent seen a tab for intro.


Eb----------------------------------------------------------------------|
Bb-----9---7------7----------8p7---7------------------------------------|
Gb----9-9---8---8---8------7-----7---7---7------------------------------|
Db---9---9----9-------9---7------------7--------------------------------|
Ab-----------------0------------------------2p0-------------------------|
Eb-0--------------------------------------------4p2p0-------------------|

Eb----------------------------------------------------------------------|
Bb-----9---7------7----------8p7---7------------------------------------|
Gb----9-9---8---8---8------7-----7---7---7------------------------------|
Db---9---9----9-------9---7------------7--------------------------------|
Ab-----------------0----------------------------------------------------|
Eb-0--------------------------------------------------------------------|

Eb------------7*-------------------------5*-----------------------------|
Bb--------5--7*--------5------------5---5*--------5---------------------|
Gb------4--------4---4---4------4-----4-----4---4---4-------------------|
Db----2------------2-------2--0---0-----------0-------0-----------------|
Ab----------------------------------------------------------------------|
Eb--0-------------------------------------------------------------------|

Eb--------3p0----0------------------------------------------------------|
Bb----3p0----3p0--0---0-------------------------------------------------|
Gb-----------------2---2-----2p1h2-4p2p1-2-5/6/7------------------------|
Db------------------2---2-----------------------------------------------|
Ab--3--------------------2---------------0-3/4/5------------------------|
Eb------------------------0---------------------------------------------|

Eb------------7*-------------------------5*-----------------------------|
Bb--------5--7*--------5------------5---5*--------5---------------------|
Gb------4--------4---4---4------4-----4-----4---4---4-------------------|
Db----2------------2-------2--0---0-----------0-------0-----------------|
Ab----------------------------------------------------------------------|
Eb--0-------------------------------------------------------------------|

Eb--------3p0----0------------------------------------------------------|
Bb----3p0----3p0--0---0-------------------------------------------------|
Gb-----------------2---2------------------------------------------------|
Db------------------2---2-----------------------------------------------|
Ab--3--------------------2----------------------------------------------|
Eb------------------------0---------------------------------------------|

Intro riff

Eb----------------------------------------------------------------------|
Bb----------------------------------------------------------------------|
Gb---4-1h2h4--2--2h4p2-2--2h4p2-----------------------------------------|
Db---x--------x--------x--------2---------------------------------------|
Ab---5--------4--------3--------2---/7p5h7p5h7p5/4h5p4h5/2--------------|
Eb------------------------------0---------------------------------------|

Eb----------------------------------------------------------------------|
Bb----------------------------------------------------------------------|
Gb---4-1h2h4--2--2h4p2-2--2h4p2-----------------------------------------|
Db---x--------x--------x--------2---------------------------------------|
Ab---5--------4--------3--------2--/7/5---------------------------------|
Eb------------------------------0---------------------------------------|
Tap to rate this tab
# A B C D E F G H I J K L M N O P Q R S T U V W X Y Z