Song name
# A B C D E F G H I J K L M N O P Q R S T U V W X Y Z

Van Halen - Learning To See tab

============================================================================
Artist: Van Halen
Album: Best of Both Worlds
Title: Learning to See

Tuning:Drop D 1/2 step (Db Ab Db Gb Bb eb)

Legend:
h=hammer on
p=pull off
b=bend up to following note
r=release bend
/=slide up
\=slide down
~~=vibrato
P.H.=palm mute
Harm.=natural harmonics

    [INTERLUDE]  w/slight P.M. throughout
e|-----------------------------------------------------------|
B|-----------------------------------------------------------|
G|----11---11/12------10----12/14----12-9----11--7-----------|
D|--9----9---------10----10---------------10-------7-9h10----|
A|-----------------------------------------------------------|
E|-----------------------------------------------------------|

e|-----------------------------------------------------------|
B|-----------------------------------------------------------|
G|----11---11/12------10----12/14----12-9----11--7-----------|
D|--9----9---------10----10---------------10-------7-9h10----|
A|-----------------------------------------------------------|
E|-----------------------------------------------------------|


    [SOLO]
e|-------------------------------------------------------------------------|
B|-17b19--b19r17--17b18--3h4h5-5p3p0-5p3p0-5p3p0-5p3p0-5p3p0-5p3p0---------|
G|-----------------------------------------------------------------2b3rp0--|
D|-------------------------------------------------------------------------|
A|-------------------------------------------------------------------------|
E|-------------------------------------------------------------------------|

e|--------------------------------------------------------|
B|--------------------------------------------------------|
G|--2--2-2b3-2b4-2-2--2r---14b15rp12--14-14b15rp12--14~---|
D|--------------------------------------------------------|
A|--------------------------------------------------------|
E|--------------------------------------------------------|

                       Harm.- - - - - - - -|          Harm.
e|-------------------------------------------------------------------------|
B|------------------------------------------------------------21b24----17--|
G|-------------------------------5-------5*------------12^-----------------|
D|------12-14-12-14-12-14~----5-----5--5----------------------------17\----|
A|--/14---------------------------------------5p2--------------------------|
E|------------------------------------------------5p4----------------------|
                                          *=depress bar 2 1/2 steps
                                          ^=raise bar 2 1/2 steps

e|-------------------------12-17--15-12-14-14-14-15p14p12-14h15p14p12------|
B|--21b24--\------------12-------------------------------------------------|
G|----------------11/12----------------------------------------------------|
D|-------------14----------------------------------------------------------|
A|-------------------------------------------------------------------------|
E|-------------------------------------------------------------------------|

e|----------------------------------------------------------------12-12-12-|
B|--15-14p12-14-12----------------------------12---------------------------|
G|-----------------15-14p12-14---14b16rp12-16----14b16rp12-12-14~~---------|
D|-------------------------------------------------------------------------|
A|-------------------------------------------------------------------------|
E|-------------------------------------------------------------------------|

Very Fast- - - - - -- - - - - - - - - - - - -|
e|--12-12-12-14-14-14-15-15-15-17-17-17-19/24--24b26-----22-24~~------|
B|--------------------------------------------------------------------|
G|--------------------------------------------------------------------|
D|--------------------------------------------------------------------|
A|--------------------------------------------------------------------|
E|--------------------------------------------------------------------|

e|---------------------------------------------------------------|
B|------8----------10-----------12---13----12h13p12--------------|
G|--------8-----------10----------------------------12----12-----|
D|--6/8-------8/10--------10/12---------12-------------12--------|
A|---------------------------------------------------------------|
E|---------------------------------------------------------------|

e|-----------------------------||
B|--13h15----------------------||
G|--------12h16----------------||
D|--------------12h17----------||
A|--------------------15\14----||
E|-----------------------------||

Well, there you have it. The solo and the interlude. 
Check out my other tab for this song.
*LATER*

============================================================================

Tap to rate this tab
# A B C D E F G H I J K L M N O P Q R S T U V W X Y Z