Song name
# A B C D E F G H I J K L M N O P Q R S T U V W X Y Z

Van Halen - Could This Be Magic tab

Could This Be Magic
by Van Halen

use a slide

intro
-------------------------------------------------------------------------------|
-----------------------------------------------------------15----15---------17-|
-9/7-----9--9--9--9---97------97-------9--9--9-----14/16----16-----14/16-------|
------9---------------------9-------9------------------------------------------|
-------------------------------------------------------------------------------|
-------------------------------------------------------------------------------|


------------------------------------------|
-17/21------------------------------------|   One, two.
-------21--------9------9-----------------|   One, two, three, four.
------------7/9------9-------874/5/6------|
------------------------------------------|
------------------------------------------|


----------------------------------------------------------------------------------|
-7---------8---9------------------------------------------------------------------|
----------------------------8-----9------4/6-----4--------------------------------|
--------------------------------------------------------4--5--6--4--5--6--5--4----|
--------------------------------------------------------------------------------7-|
----------------------------------------------------------------------------------|


---------------------------------------------------------------------------------|
------------------------7---------8---9------------------------------------------|
------------------------------------------------8/9-----8-----9------4/6-----4---|
--------2------------------------------------------------------------------------|
---------------------------------------------------------------------------------|
--3p0----------------------------------------------------------------------------|


-------------------------------------------|
-------------------------------------------|
-------------------------------------------|
----4--5--6--4--5--6--5--4---------------2-|
----------------------------7--------------|
-----------------------------------3p0-----|
Tap to rate this tab
# A B C D E F G H I J K L M N O P Q R S T U V W X Y Z