Song name
# A B C D E F G H I J K L M N O P Q R S T U V W X Y Z

Van Halen - Half Bad tab

-----------------------------------------|
-----------------------------------------|
-----------------------------------------|   Repeat3x
---9-9---5-555-555/77-2222---------------|
---7-7---3-333-333/55-0000---------------|
---7-7---3-333-333/55-0000---------------|
drums
-------------------------------------------|
-------------------------------------------|
-------------------------------------------|
--9-99-9/77/55555-5/7-7777-2-22-22---------|    That is the intro i havn't
--7-77-7/55/33333-3/5-5555-0-00-00---------|    figured out the rest
--7-77-7/55/33333-3/5-5555-0-00-00---------|
Tap to rate this tab
# A B C D E F G H I J K L M N O P Q R S T U V W X Y Z