Song name
# A B C D E F G H I J K L M N O P Q R S T U V W X Y Z

Van Halen - Wild Thing Live tab

Wild Thing live(summer nights) - Van Halen

song: wild thing live
artist: Eddie Van Halen
alblum: summer nights
tabbed by: ameyers

This is an awesome remix of a classic hendrix song that actually sounds
good and has the classic evh tone and sound. Van Halen played this
during the summer nights concert. Its a pretty easy song, except for
the solo, but i think it sounds better if you just make one up on the
spot. if you don't have a whammy bar just slowly wiggle the string.
This tab is 99.9% correct, but i couldn't figure out the solo, so here
it is. Also, if you have built in effects or a evh phase 90 pedal use
them.


Key
h hammer on
/ slide
x mute out note
~ let ring
b bend
* whammy dive

tuning: standard

gt 1 Intro repeat 4x w/o beginning
e---------------------------------------|
B---------------------------------------|
G---------------------------------------|
D----------------5-3/7-7-7--3-5------7--|b
A-5h6/1--5-5-x-x-3-3/5-5-5--3-3-5-5-----|
E--------3-3-x-x----------------3-3-----|

gt 1 verse play throuout song
e-------------------------------|
B-------------------------------|
G-------------------------------|
D---------5-5/7-7-7--5-5--------|
A-5-5-x-x-3-3/5-5-5--3-3-5-5----|
E-3-3-x-x----------------3-3----|

gt 1&2 chorus 3x
e-------------------|
B-------------------|
G-------------------|
D-------------------|
A-5-5-7-6~~~~~5**---|
E-3-3-5-5~~~~~3**---|

gt 2 play during verse
e-------------------|
B-12h13-14-11-15*---|
G-12h13-14-11-15*---|
D-------------------|
A-------------------|
E-------------------|

gt 3 play during verse
e-----------------------|
B-----------------------|
G-----5-5/7-7-7--5-5----|
D-5-5-3-3/5-5-5--3-3-5--|
A-3-3----------------3--|
E-----------------------|

e---------------------|
B--0-------------0h5--|
G----1---------1------|
D------2-----2--------|
A---------0-----------|
E---------------------|

gt 3 during chorus(w/ wah wah)
e--------------------|
B--------------------|
G--------------------|
D--------------------|
A--5***************--
E--3***************--
Tap to rate this tab
 
# A B C D E F G H I J K L M N O P Q R S T U V W X Y Z