Song name
# A B C D E F G H I J K L M N O P Q R S T U V W X Y Z

Van Hunt - Ride Ride Ride tab

Help us improve GuitareTab! Take a short survey!
-------------------------------------------------------------------------------
			   "Ride, Ride, Ride" -  by Van Hunt
-------------------------------------------------------------------------------

Album: On The Jungle Floor

Tabbed by: "the funkrock"

Email: thefunkrock@mac.com

Tuning: Drop D

e|---------------------------------------------------------------------------|
B|---------------------------------------------------------------------------|
G|---------------------------------------------------------------------------|
D|---------------------------------------------------------------------------|
A|---------------------------------------------------------------------------|
D|---------------------------------------------------------------------------|

Intro riff - (reference the record for the rhythm)

            G#5          F#5         D#5                   (play twice)
e|--------------------------------------------------------------------------|
B|--------------------------------------------------------------------------|
G|--------------------------------------------------------------------------|
D|---------------------------------------------6-6--4-----------------------|
A|----6-6-6-----4-4-----1----1---------------- 6-6--4-----------------------|
D|----6-6-6-----4-4-----1----1----------------------------------------------|

           G#5        F#5                            E5                                  
               D#5
e|-----------------------------------------------------------------------------|
B|-----------------------------------------------------------------------------|
G|-----------------------------------------------------------------------------|
D|-----------------------------------------------------------------------------|
A|----6-6-6---4-4-----1--2------2---2------2--4----- 4--4--------1-------------|
D|----6-6-6---4-4---------------2---2----------------4--4--------1-------------|

The bass and guitar play this part in unison. The underlying
chord would be D#5.
e|-----------------------------------------------------------------------------|
B|-----------------------------------------------------------------------------|
G|-----------------------------------------------------------------------------|
D|--1------------1---------1------------1----------1------------1--------------|
A|-----4-1-4-4----------------4-1-4-4-----------------4-1-4-4------------------|
D|-----------------------------------------------------------------------------|

In the verse it does the same riff, except it just sticks to the
chords for the first half of the verse. The second half of the
verse is the same as the intro riff above.

          G#5            F#5        D#5                   (play twice)
e|----------------------------------------------------------------------------|
B|----------------------------------------------------------------------------|
G|----------------------------------------------------------------------------|
D|----------------------------------------------------------------------------|
A|----6-6-6-----4-4-----1----1----1-------------------------------------------|
D|----6-6-6-----4-4-----1----1----1-------------------------------------------|

           G#5            F#5                  E5                               F#5              D#5
e|-----------------------------------------------------------------------------|
B|-----------------------------------------------------------------------------|
G|-----------------------------------------------------------------------------|
D|-----------------------------------------------------------------------------|
A|----6-6-6-----4-4-----------2---2-------------4--4--------1------------------|
D|----6-6-6-----4-4-----------2---2-------------4--4--------1------------------|

        D#5
e|-----------------------------------------------------------------------------|
B|-----------------------------------------------------------------------------|
G|-----------------------------------------------------------------------------|
D|--1------------1--------1-----------1--------1------------1------------------|
A|-----4-1-4-4---------------4-1-4-4--------------4-1-4-4----------------------|
D|-----------------------------------------------------------------------------|


The chorus is the same riff.

Just before the bridge, after the 2nd chorus, hold on the D#5.

The bridge/outro chord progression is:

D#m7,  G#m7,  B,  E,  F#,  C#,  G#,  A#.

For simplicity I will just tab out the power chords because of the
different hand positions of these chords in drop D tuning.

          D#5     G#5        B5          E5          F#5       C#5       G#5       A#5

e|----------------------------------------------------------------------------|
B|----------------------------------------------------------------------------|
G|----8-------------4--------------------- 6----------------------------------|
D|----8------6------4------ 2------ 4------6------ 6-----8-8-8-8-8-8----------|
A|----6------6------2------ 2------ 4------4------ 6-----8-8-8-8-8-8----------|
D|-----------6------------- 2------ 4------------- 6-----8-8-8-8-8-8----------|

(repeat and fade)
Related for Ride Ride Ride tab