Song name
# A B C D E F G H I J K L M N O P Q R S T U V W X Y Z

Van Hunt - Character tab

------------------------------------------------------------------------------
			                             Character - Van Hunt
------------------------------------------------------------------------------
Tabbed by: the funkrock

Tuning: standard

Bassline: (doubled on guitar)

        Bbm7
G|-----------------------------------------------------------------------------|
D|-----------------------------------------------------------------------------|
A|-----------------------------------------------------------------------------|
E|---6------6--4--6------6--4--6------6--4--6------6--4--6---------------------|

        Ebm7
G|-----------------------------------------------------------------------------|
D|-----------------------------------------------------------------------------|
A|----3----4----6----8----6----4----3------------------------------------------|
E|-----------------------------------------------------------------------------|
         Bbm7
G|-----------------------------------------------------------------------------|
D|-----------------------------------------------------------------------------|
A|-----------------------------------------------------------------------------|
E|---6------6--4--6------6--4--6------6--4--6------6--4--6---------------------|

        Ebm7
G|------------------------------------------------------------------------------|
D|------------------------------------------------------------------------------|
A|----3----4----6---------3----4----6-------------------------------------------|
E|------------------------------------------------------------------------------|

Guitar chords for the verse section:

              Bbm7                                                         Ebm7
e|  -------6-----------------------------------6-------------------------------|
B|  -------6-----------------------------------7-------------------------------|
G|  -------6-----------------------------------6-------------------------------|
D|  -------6-----------------------------------8-------------------------------|
A|  -------8-----------------------------------6-------------------------------|
E|  -------6-------------------------------------------------------------------|

This progression remains constant through the verse and chorus.
An F7 is played at the end of the chorus just before going back into
the verse.

Guitar chords for the chorus section:

              Bbm7                                                        Ebm7           
                    F7
e| -------6-----------------------------------6------------------------------|
B| -------6-----------------------------------7------------------------------|
G| -------6-----------------------------------6-------------------8----------|
D| -------6-----------------------------------8-------------------7----------|
A| -------8-----------------------------------6-------------------8----------|
E| -------6------------------------------------------------------------------|

Bridge before 2nd chorus:

              Gbm7                                                             Db
e|--------4------------------------------------4-------------------------------|
B|--------4------------------------------------6-------------------------------|
G|--------4------------------------------------6-------------------------------|
D|--------4------------------------------------6-------------------------------|
A|--------6------------------------------------4-------------------------------|
E|--------4--------------------------------------------------------------------|

At the end of the last chorus the chords go from Ebm7 to F7 four
times before resolving to Bbm7 and fading on the main riff.
Tap to rate this tab
# A B C D E F G H I J K L M N O P Q R S T U V W X Y Z