Guitaretab - guitar tabs
Song name
# A B C D E F G H I J K L M N O P Q R S T U V W X Y Z

Van Morrison - Moondance August Rush tab

Moondance from Autumn Rush

By Holmes

----------------------------------|
---1--1----3--3-----5--5----3--3--|
---0--0----0--0-----0--0----0--0--|
---2--2----4--4-----5--5----4--4--|
-0------0--------0--------0-------|
----------------------------------|

Repeat this line a lot. Itís the intro and the first stanzas.


-----------------------------------|
---1--1-----3--3----1--1----2--2---|
---0--0-----0--0----0--0----0--0---|
---2--2-----4--4----2--2----2--2---|
-0-------0--------0-------0--------|
-----------------------------------|
"heart-strings that play soft and low"

[ Tab from: http://www.guitaretab.com/v/van-morrison/111029.html ]
---1--1----1--1------------------------------------------------------|
---3--3----0--0-----1--1----1--1-----0--0---0--0-----1--1-----1--1---|
---2--2----2--2-----0--0----2--2-----2--2---1--1-----2--2-----0--0---|
-0-------0----------2--2----0--0-----0--0---0--0-----2--2-----2--2---|
----------------0-----------------2---------------0--------0---------|
-------------------------2T*--------------0--------------------------|
  "nights       magic    seems to whisper   and hush"


---1--1----1--1------------------------0--0--0-----0--0--0---|
---3--3----0--0-----1--1------1--1-----0--0--0-----0--0--0---|
---2--2----2--2-----0--0------2--2-----2--2--2-----1--1--1---|
-0-------0----------2--2------0--0---------------------------|
-----------------0------------------2------------------------|
--------------------------2T--------------------0------------|
   "soft         moonlight seems to shine     in your blush"

Play the tabs at the beginning for the last part of the verses.


2T* Use your thumb.
Related for Moondance August Rush tab