Guitaretab - guitar tabs
Song name
# A B C D E F G H I J K L M N O P Q R S T U V W X Y Z

Van Morrison - Domino tab

-------------------------------------------------------------------------------
	 Intro to:	     Domino  Van Morrison
-------------------------------------------------------------------------------
Tabbed by: Kevin
Email: almostasn112@aol.com

Tuning: Standard with capo on 5th fret
                                                                                       (Play3x)
e|-----------------10-10--------------------------7--7-------------------------|
B|-----------------10-10--------------------------7--7-------------------------|
G|-----------------------------------------------------------------------------|
D|-----------------------------------------------------------------------------|
A|-----7h9p7--------------------7h9p7------------------------------------------|
E|--9----------9--------------9------------9-----------------------------------|
[ Tab from: http://www.guitaretab.com/v/van-morrison/170005.html ]
                                                                         (Play 4x)
e|----------7--7---------------------------------------------------------------|
B|----------7--7-------------7-------------------------------------------------|
G|--6---------------6--------7-------------------------------------------------|
D|--7---------------7--------7-------------------------------------------------|
A|--7---------------7----------------------------------------------------------|
E|-----------------------------------------------------------------------------|

e|---------10--10---------7--7-----------------------------7---7---------------|
B|---------10--10---------7--7------------7--7-------------7---7---------------|
G|--6----------------6--------------6-----7--7------6--------------------------|
D|--7----------------7--------------7-----7--7------7--------------------------|
A|--7----------------7--------------7---------------7--------------------------|
E|-----------------------------------------------------------------------------|


| /  slide up
| \  slide down
| h  hammer-on
| p  pull-off
| ~  vibrato
| +  harmonic
| x  Mute note
======================================================================
Related for Domino tab