Song name
# A B C D E F G H I J K L M N O P Q R S T U V W X Y Z

Van Morrison - Here Comes The Night chords

Highlighted       Show chord diagrams
Song: Here Comes the Night (Bert Burns)
Artist: Van Morrison
Album: Them

Tabbed by Patrick Rickelton

Guitar intro: E  A

---------------|
---------------|
---------------| This 3x
----2-------0--|
--2---2--4-----|
---------------|

                  E
Whoa here it comes,
A               E
Here comes the night,
A              E
Here comes the night,
A                  E    B
Woh-oo oh-oo oh-oo yeah.

------------------|
------------------|
------------------|
----2---1--1-2--4-|
--2---2-----------|
------------------|


Verse 1

E
I could see right out my window,
B
Walking down the street,
             E          A   B
My girl with another guy,

Guitar lick:
------------------------|
------------------------|
--9------9-------8------|
----9s11---11s7-----9---|
------------------------|
------------------------|

E                                          B
His arm around her like it used to be with me.
                 E
Oh-oo it makes me want to die.

----------------------------|
----------------------------|
--11--9--8------------------|
------------11--9--7--6--4--|
----------------------------|
----------------------------|

B                                 E
Yeah-e yeah-e yeah-e well here it comes,


Chorus
A              E
Here comes the night,
A              E
Here comes the night,
A                 E    B
Oh-oo oh-oo oh-oo yeah.

Verse2
There they go,
It's funny how they look so good together,
Wonder what is wrong with me.
Why can't I accept the fact she's chosen him,
And simply let them be.
Wo-oo oh-oo oh well here it comes,

Here comes the night,
Here comes the night,
Oh-oo oh-oo oh-oo yeah.


Verse 3
She's with him,
He's turning down the lights,
And now he's holdin' her,
The way I used to do.
I could see her closing her eyes,
And tellin' him lies,
Exactly like she told me too.
Yeah-e yeah-e yeah-e well here it comes,

Chorus
Here comes the night,
The long the long the lonely night,
Nigh nigh nigh nigh nigh night,
Whoa, here comes the night,
The long the long the long the lonely night
Night night night night...
Whoa, here comes the night (fade)
Tap to rate this tab
# A B C D E F G H I J K L M N O P Q R S T U V W X Y Z