Song name
# A B C D E F G H I J K L M N O P Q R S T U V W X Y Z

Van Morrison - Jackie Wilson Said tab

  N.C
e|-----------3---3-|-----------------|
B|-------3---------|-3-3-------------|
G|-4-4-5-----------|-----5-4---------|
D|-----------------|---------------5-|
A|-----------------|-----------------|
E|-----------------|-----------------|x4
   1   2   3   4     1   2   3   4   
   Dadadada  da  dadadadada      da
   Dadadada  da  dadadadada      da
   Dadadada  da  dadadadada      da
   Dadadada  da  dadadadada  Jackie...

   Am                          Dm
e|---------------------------|---------------------------|
B|---------------------------|---------------------------|
G|----------7h9p7-5h7p5------|---------------------------|
D|----------------------7h9p7|-7-------------------------|
A|---------------------------|---------------------------|
E|---------------------------|---------------------------|
   1      2      3      4      1      2      3      4
   Wilson said          It was reet-petite
   Kinda love you got        Knock me off my feet

   G
e|--------5----------10------|-7------5---3--------------|
B|-8----------8------8-------|-7------5---0--------------|
G|---------------------------|-7------5------------------|
D|---------------------------|---------------------------|
A|---------------------------|---------------------------|
E|---------------------------|---------------------------|
   1      2      3      4      1      2      3      4
   Let it all    hang out                              Oh,
   let it all    hang out.                   And       you

   Am                          Dm
e|---------------------------|---------------------------|
B|---------------------------|---------------------------|
G|----------7h9p7-5h7p5------|---------------------------|
D|----------------------7h9p7|-7-------------------------|
A|---------------------------|---------------------------|
E|---------------------------|---------------------------|
   1      2      3      4      1      2      3      4
   know                    I'm so     wired-up
          Don't need    no     coffee in my  cup

   G
e|--------5----------10------|-7------5---3--------------|
B|-8----------8------8-------|-7------5---0-----------5p3|
G|---------------------------|-7------5------------------|
D|---------------------------|---------------------------|
A|---------------------------|---------------------------|
E|---------------------------|---------------------------|
   1      2      3      4      1      2      3      4
   Let it all    hang out                              
   let it all    hang out.     Watch this

   Am                          Dm
e|------------------------3p0|h3-------------------------|
B|h5-------------------------|---------------------------|
G|---------------------------|---------------------------|
D|---------------------------|---------------------------|
A|---------------------------|---------------------------|
E|---------------------------|---------------------------|
   1      2      3      4      1      2      3      4
          Ding-a-ling-a-ling   Ding-a-ling-a-ling   ding

   Am                          Dm
e|------------------------3p0|h3-------------------------|
B|----5p3h5------------------|---------------------------|
G|---------------------------|---------------------------|
D|---------------------------|---------------------------|
A|---------------------------|---------------------------|
E|---------------------------|---------------------------|
   1      2      3      4      1      2      3      4
          Ding-a-ling-a-ling   Ding-a-ling-a-ling   ding

   G
e|--------5----------10------|-7------5---3--------------|
B|-8----------8------8-------|-7------5---0--------------|
G|---------------------------|-7------5------------------|
D|---------------------------|---------------------------|
A|---------------------------|---------------------------|
E|---------------------------|---------------------------|
   1      2      3      4      1      2      3      4
                                                 Do-da-do

   G
e|--------5----------10------|-7------5---3--------------|
B|-8----------8------8-------|-7------5---0---------8----|
G|---------------------------|-7------5------9-----------|
D|---------------------------|---------------------------|
A|---------------------------|---------------------------|
E|---------------------------|---------------------------|
   1      2      3      4      1      2      3      4
   da                                        I'm    in

   N.C
e|----------------------7----|---------------------------|
B|-10------------------------|-10-------------------8----|
G|---------------------------|---------------9-----------|
D|---------------------------|---------------------------|
A|---------------------------|---------------------------|
E|---------------------------|---------------------------|
   1      2      3      4      1      2      3      4
   heaaaaaaaaaaaaaaaaaa-ea  -  ven           I'm    in

e|-7-------------------------|---------------------------|
B|----------------------10---|-8--------------------8----|
G|---------------------------|---------------9-----------|
D|---------------------------|---------------------------|
A|---------------------------|---------------------------|
E|---------------------------|---------------------------|
   1      2      3      4      1      2      3      4
   heaaaaaaaaaaaaaaaaaa-ea  -  ven           I'm    in

e|----------------------7----|---------------5-----------|
B|-10------------------------|-10-------------------8----|
G|---------------------------|---------------------------|
D|---------------------------|---------------------------|
A|---------------------------|---------------------------|
E|---------------------------|---------------------------|
   1      2      3      4      1      2      3      4
   heaaaaaaaaaaaaaaaaaa-ea  -  ven           When   you

   G
e|--------5----------10------|-7------5---3--------------|
B|-8----------8------8-------|-7------5---0--------------|
G|---------------------------|-7------5------------------|
D|---------------------------|---------------------------|
A|---------------------------|---------------------------|
E|---------------------------|---------------------------|
   1      2      3      4      1      2      3      4
   smile                Whenyousmile                When you
   smile                Whenyousmile                And when you

   Am                          Dm
e|---------------------------|---------------------------|
B|---------------------------|---------------------------|
G|----------7h9p7-5h7p5------|---------------------------|
D|----------------------7h9p7|-7-------------------------|
A|---------------------------|---------------------------|
E|---------------------------|---------------------------|
   1      2      3      4      1      2      3      4
   Walk                        Across the road        You
   make my heart go            Boom   boom   boom   boom

   G
e|--------5----------10------|-7------5---3--------------|
B|-8----------8------8-------|-7------5---0--------------|
G|---------------------------|-7------5------------------|
D|---------------------------|---------------------------|
A|---------------------------|---------------------------|
E|---------------------------|---------------------------|
   1      2      3      4      1      2      3      4
   Let it all    hang out                           Baby
   let it all    hang out                           And ev'ry

   Am                          Dm
e|---------------------------|---------------------------|
B|---------------------------|---------------------------|
G|----------7h9p7-5h7p5------|---------------------------|
D|----------------------7h9p7|-7-------------------------|
A|---------------------------|---------------------------|
E|---------------------------|---------------------------|
   1      2      3      4      1      2      3      4
   time                    You look that way        Honey 
   chile                              you make  my    day

   G
e|--------5----------10------|-7------5---3--------------|
B|-8----------8------8-------|-7------5---0-----------5p3|
G|---------------------------|-7------5------------------|
D|---------------------------|---------------------------|
A|---------------------------|---------------------------|
E|---------------------------|---------------------------|
   1      2      3      4      1      2      3      4
   Let it all    hang out                    Like the man said     
   let it all    hang out.     Watch this

   Am                          Dm
e|------------------------3p0|h3-------------------------|
B|h5-------------------------|---------------------------|
G|---------------------------|---------------------------|
D|---------------------------|---------------------------|
A|---------------------------|---------------------------|
E|---------------------------|---------------------------|
   1      2      3      4      1      2      3      4
          Ding-a-ling-a-ling   Ding-a-ling-a-ling   ding

   Am                          Dm
e|------------------------3p0|h3-------------------------|
B|----5p3h5------------------|---------------------------|
G|---------------------------|---------------------------|
D|---------------------------|---------------------------|
A|---------------------------|---------------------------|
E|---------------------------|---------------------------|
   1      2      3      4      1      2      3      4
          Ding-a-ling-a-ling   Ding-a-ling-a-ling   ding

   G
e|--------5----------10------|-7------5---3--------------|
B|-8----------8------8-------|-7------5---0--------------|
G|---------------------------|-7------5------------------|
D|---------------------------|---------------------------|
A|---------------------------|---------------------------|
E|---------------------------|---------------------------|
   1      2      3      4      1      2      3      4
                                                 Do-da-do

   G
e|--------5----------10------|-7------5---3--------------|
B|-8----------8------8-------|-7------5---0---------8----|
G|---------------------------|-7------5------9-----------|
D|---------------------------|---------------------------|
A|---------------------------|---------------------------|
E|---------------------------|---------------------------|
   1      2      3      4      1      2      3      4
   da                                        I'm    in

   N.C
e|----------------------7----|---------------------------|
B|-10------------------------|-10-------------------8----|
G|---------------------------|---------------9-----------|
D|---------------------------|---------------------------|
A|---------------------------|---------------------------|
E|---------------------------|---------------------------|
   1      2      3      4      1      2      3      4
   heaaaaaaaaaaaaaaaaaa-ea  -  ven           I'm    in

e|-7-------------------------|---------------------------|
B|----------------------10---|-8--------------------8----|
G|---------------------------|---------------9-----------|
D|---------------------------|---------------------------|
A|---------------------------|---------------------------|
E|---------------------------|---------------------------|
   1      2      3      4      1      2      3      4
   heaaaaaaaaaaaaaaaaaa-ea  -  ven           I'm    in

e|----------------------7----|---------------5-----------|
B|-10------------------------|-10-------------------8----|
G|---------------------------|---------------------------|
D|---------------------------|---------------------------|
A|---------------------------|---------------------------|
E|---------------------------|---------------------------|
   1      2      3      4      1      2      3      4
   heaaaaaaaaaaaaaaaaaa-ea  -  ven           When   you

   G
e|--------5----------10------|-7------5---3--------------|
B|-8----------8------8-------|-7------5---0---------8----|
G|---------------------------|-7------5------9-----------|
D|---------------------------|---------------------------|
A|---------------------------|---------------------------|
E|---------------------------|---------------------------|
   1      2      3      4      1      2      3      4
   smile                Whenyousmile         I'm    in

   N.C
e|----------------------7----|---------------------------|
B|-10------------------------|-10-------------------8----|
G|---------------------------|---------------9-----------|
D|---------------------------|---------------------------|
A|---------------------------|---------------------------|
E|---------------------------|---------------------------|
   1      2      3      4      1      2      3      4
   heaaaaaaaaaaaaaaaaaa-ea  -  ven           I'm    in

e|-7-------------------------|---------------------------|
B|----------------------10---|-8--------------------8----|
G|---------------------------|---------------9-----------|
D|---------------------------|---------------------------|
A|---------------------------|---------------------------|
E|---------------------------|---------------------------|
   1      2      3      4      1      2      3      4
   heaaaaaaaaaaaaaaaaaa-ea  -  ven           I'm    in

e|----------------------7----|---------------5-----------|
B|-10------------------------|-10-------------------8----|
G|---------------------------|---------------------------|
D|---------------------------|---------------------------|
A|---------------------------|---------------------------|
E|---------------------------|---------------------------|
   1      2      3      4      1      2      3      4
   heaaaaaaaaaaaaaaaaaa-ea  -  ven           When   you

   G
e|--------5----------10------|-7------5---3--------------|
B|-8----------8------8-------|-7------5---0---------8----|
G|---------------------------|-7------5------9-----------|
D|---------------------------|---------------------------|
A|---------------------------|---------------------------|
E|---------------------------|---------------------------|
   1      2      3      4      1      2      3      4
   smile                Onemoretime          I'm    in

   N.C
e|----------------------7----|---------------------------|
B|-10------------------------|-10-------------------8----|
G|---------------------------|---------------9-----------|
D|---------------------------|---------------------------|
A|---------------------------|---------------------------|
E|---------------------------|---------------------------|
   1      2      3      4      1      2      3      4
   heaaaaaaaaaaaaaaaaaa-ea  -  ven           I'm    in

e|-7-------------------------|---------------------------|
B|----------------------10---|-8--------------------8----|
G|---------------------------|---------------9-----------|
D|---------------------------|---------------------------|
A|---------------------------|---------------------------|
E|---------------------------|---------------------------|
   1      2      3      4      1      2      3      4
   heaaaaaaaaaaaaaaaaaa-ea  -  ven           I'm    in

e|----------------------7----|---------------5-----------|
B|-10------------------------|-10-------------------8----|
G|---------------------------|---------------------------|
D|---------------------------|---------------------------|
A|---------------------------|---------------------------|
E|---------------------------|---------------------------|
   1      2      3      4      1      2      3      4
   heaaaaaaaaaaaaaaaaaa-ea  -  ven           When   you

   G
e|--------5----------10------|-7------5---3--------------|
B|-8----------8------8-------|-7------5---0--------------|
G|---------------------------|-7------5------9------7--5-|
D|---------------------------|---------------------------|
A|---------------------------|---------------------------|
E|---------------------------|---------------------------|
   1      2      3      4      1      2      3      4
   smile                whenyousmile

   Am
   D
   Am
   D
   Am                          D7/G                    
e|-----------------------|   |------------------------|
B|-----------------------|   |------------------------|
G|-------------9-----7-5-|   |-8----------------------|
D|-7---------------------|   |------------------------|
A|-----------------------|   |------------------------|
E|-----------------------|x5 |------------------------|
   1     2     3     4         1     2     3     4     


   G
e|--------5----------10------|-7------5---3--------------|
B|-8----------8------8-------|-7------5---0--------------|
G|---------------------------|-7------5------9------7--5-|
D|---------------------------|---------------------------|
A|---------------------------|---------------------------|
E|---------------------------|---------------------------|
   1      2      3      4      1      2      3      4

   Am
   D
   Am
   D
   Am                          D7/G                    
e|-----------------------|   |------------------------|
B|-----------------------|   |------------------------|
G|-------------9-----7-5-|   |-8----------------------|
D|-7---------------------|   |------------------------|
A|-----------------------|   |------------------------|
E|-----------------------|x5 |------------------------|
   1     2     3     4         1     2     3     4     

   G                           N.C
e|--------5----------10------|--------5----------10------|
B|-8----------8------8-------|-8----------8------8-------|
G|---------------------------|---------------------------|
D|---------------------------|---------------------------|
A|---------------------------|---------------------------|
E|---------------------------|---------------------------|
   1      2      3      4      1      2      3      4


e|-----------3---3-|-----------------|
B|-------3---------|-3-3-------------|
G|-4-4-5-----------|-----5-4---------|
D|-----------------|-----------------|
A|-----------------|-----------------|
E|-----------------|-----------------|x4
   1   2   3   4     1   2   3   4   
                     Dadadada
Tap to rate this tab
# A B C D E F G H I J K L M N O P Q R S T U V W X Y Z