Song name
# A B C D E F G H I J K L M N O P Q R S T U V W X Y Z

Van - Betty Blowtorch tab

Van

d|---------------|
a|---------------|
f|--6--5--9--11--|
c|--6--5--9--11--|
g|--4--3--7---9--|
C|---------------| Intro 

d|------------|
a|------------|
f|--6--9--11--|
c|--6--9--11--|
g|--4--7---9--|
C|------------| Verse

d|-----------|
a|-----------|
f|-----------|
c|--6--4--5--|
g|--6--4--5--|
C|--6--4--5--| Pre-Chorus

d|--------------|
a|--------------|
f|--9--8--------|
c|--9--8--9--6--|
g|--7--6--9--6--|
C|--------9--6--| Chorus
Tap to rate this tab
# A B C D E F G H I J K L M N O P Q R S T U V W X Y Z