Song name
# A B C D E F G H I J K L M N O P Q R S T U V W X Y Z

Vandals - Too Much Drama tab

-------------------------------------------------------------------------------
			     Too Much Drama - Vandals
-------------------------------------------------------------------------------
Tabbed by: Rayhan Mustafa
Email: Darth_Qurashi@hotmail.com

Tuning: Standard

Intro lead
e|--0--0------------1--1--3-----------0--------------1--1-3------------------|
B|---1----3-0---3-----1------5-3-------1--3-1-0--------1------5-3------------|
G|----0-------0------2-----0------------0-------0-----2-----0----------------|
D|------------------3-----5------------------------2-3----5------------------|
A|---------------------------------------------------------------------------|
E|---------------------------------------------------------------------------|

Intro rhythm 
e|---------------------------------------------------------------------------|
B|---------------------------------------------------------------------------|
G|---5------5-------------------------5---5----------------------------------|
D|---5------5------3------5-----------5---5----------3----5------------------|
A|---3------2------3------5-----------3---2----------3----5------------------|
E|-----------------1------3--------------------------1----3------------------|

Verse x2 (chords)  palm mute and use galloping rhythm
e|---------------------------------------------------------------------------|
B|---------------------------------------------------------------------------|
G|---5---5-------------------------------------------------------------------|
D|---5---5--3--5-------------------------------------------------------------|
A|---3---2--3--5-------------------------------------------------------------|
E|----------1--3-------------------------------------------------------------|

Pre-chorus     
e|---------------------------------------------------------------------------|
B|---------------------------------------------------------------------------|
G|--------5-5---10-------------5----5--5-5-6---------------------------------|
D|-3--5---5-5---10------3--5---5----5--5-5-6---------------------------------|
A|-3--5---3-2----8------3--5---3----3--3-3-4---------------------------------|
E|-1--3-----------------1--3-------------------------------------------------|

Chorus
e|---------------------------------------------------------------------------|
B|---------------------------------------------------------------------------|
G|--7---10---5---------------------------------------------------------------|
D|--7---10---5--5------------------------------------------------------------|
A|--5----8---3--5------------------------------------------------------------|
E|--------------3------------------------------------------------------------|

e|---------------------------------------------------------------------------|
B|---------------------------------------------------------------------------|
G|-7-7-7-7-7-7-7-9-----10-10-10-10-10-10-10-10-------5-----------------------|
D|-7-7-7-7-7-7-7-9-----10-10-10-10-10-10-10-10-------5---5-------------------|
A|-5-5-5-5-5-5-5-7------8--8--8--8--8--8--8--8-------3---5-------------------|
E|-------------------------------------------------------3-------------------|


Intro

Verse x2

Pre-chorus

Chorus


Bridge x4
e|--0--0------------1--1--3--------------------------------------------------|
B|---1----3-0---3-----1------5-3---------------------------------------------|
G|----0-------0------2-----0-------------------------------------------------|
D|------------------3-----5--------------------------------------------------|
A|---------------------------------------------------------------------------|
E|---------------------------------------------------------------------------|

Post-bridge
e|---------------------------------------------------------------------------|
B|---------------------------------------------------------------------------|
G|-5-5-5-5-5-5-5-6-----------------------------------------------------------|
D|-5-5-5-5-5-5-5-6-----------------------------------------------------------|
A|-3-3-3-3-3-3-3-4-----------------------------------------------------------|
E|---------------------------------------------------------------------------|


Chorus



Outro lead
e|--0--0------------1--1--3-----------0--------------1--1-3------------------|
B|---1----3-0---3-----1------5-3-------1--3-1-0--------1------5-3------------|
G|----0-------0------2-----0------------0-------0-----2-----0----------------|
D|------------------3-----5------------------------2-3----5------------------|
A|---------------------------------------------------------------------------|
E|---------------------------------------------------------------------------|

Outro rhythm 
e|---------------------------------------------------------------------------|
B|---------------------------------------------------------------------------|
G|---5------5-------------------------5---5-------------------------5~-------|
D|---5------5------3------5-----------5---5----------3----5-5-5-5---5~-------|
A|---3------2------3------5-----------3---2----------3----5-5-5-5---3~-------|
E|-----------------1------3--------------------------1----3-3-3-3------------|


| /  slide up
| \  slide down
| h  hammer-on
| p  pull-off
| ~  vibrato
| +  harmonic
| x  Mute note
===============================================================================
Tap to rate this tab
 
# A B C D E F G H I J K L M N O P Q R S T U V W X Y Z