Song name
# A B C D E F G H I J K L M N O P Q R S T U V W X Y Z

Vandals - Jackass tab

Help us improve GuitareTab! Take a short survey!
-------------------------------------------------------------------------------
			      	Jackass	- Vandals 
-------------------------------------------------------------------------------
Tabbed by: Ryan Armstrong
Email:

Tuning: Standard

This is a cool song co-writen by Dexter Holland from The Offspring

  Intro play x3 no distortion
e|---------------------------------------------------------------|
B|---------------------------------------------------------------|
G|---------------------------------------------------------------|
D|-5-5-5-5-5-5-5-5-4-5-5-5-5-5-4-5-5-5-5-5-4---------------------|
A|-3-3-3-3-3-3-3-3-2-3-3-3-3-3-2-3-3-3-3-3-2-2-5-5-5-5-2-3-3-3-3-|
E|-------------------------------------------0-3-3-3-3-0-1-1-1-1-|
  Continued
e|---------------------------------------------------------|
B|---------------------------------------------------------|
G|-5-5-5-5-5-5-5---------------5-5-5-5-5-5-5---------------|
D|-5-5-5-5-5-5-5-3-3-3-3-3-3-3-5-5-5-5-5-5-5-5-5-5-5-5-5-5-|
A|-3-3-3-3-3-3-3-3-3-3-3-3-3-3-3-3-3-3-3-3-3-5-5-5-5-5-5-5-|
E|---------------1-1-1-1-1-1-1---------------3-3-3-3-3-3-3-|
  Verse
e|-----------------------------------------------------------------|
B|-----------------------------------------------------------------|
G|-5-5---------5-5-----------------5-5---------5-5-----------------|
D|-5-5---3-3---5-5---5-5-5-5-5-5-5-5-5---3-3---5-5---5-5-5-5-5-5-5-|
A|-3-3---3-3---3-3---5-5-5-5-5-5-5-3-3---3-3---3-3---5-5-5-5-5-5-5-|
E|-------1-1---------3-3-3-3-3-3-3-------1-1---------3-3-3-3-3-3-3-|
  Pre verse play x2
e|---------------------------------------------------------|
B|---------------------------------------------------------|
G|-----------------------------5-5-5-5-5-5-5---------------|
D|-7-7-7-7-7-7-7-3-3-3-3-3-3-3-5-5-5-5-5-5-5-5-5-5-5-5-5-5-|
A|-7-7-7-7-7-7-7-3-3-3-3-3-3-3-3-3-3-3-3-3-3-5-5-5-5-5-5-5-|
E|-5-5-5-5-5-5-5-1-1-1-1-1-1-1---------------3-3-3-3-3-3-3-|
  Chorus play x2
e|-----------------------------|
B|-----------------------------|
G|------10-10--5-5-5-5---------|
D|-5-5--10-10--5-5-5-5-5-5-5-5-|
A|-5-5---8--8--3-3-3-3-5-5-5-5-|
E|-3-3-----------------3-3-3-3-|
  Continued
e|-------------------------------------------|
B|-------------------------------------------|
G|-------------------------------------------|
D|-7-7-7-7-7-7-7-3-3-3-3-3-3-3-5-5-5-5-5-5-5-|
A|-7-7-7-7-7-7-7-3-3-3-3-3-3-3-5-5-5-5-5-5-5-|
E|-5-5-5-5-5-5-5-1-1-1-1-1-1-1-3-3-3-3-3-3-3-|
  Pre verse play x2
e|---------------------------------------------------------|
B|---------------------------------------------------------|
G|-5-5-5-5-5-5-5---------------5-5-5-5-5-5-5---------------|
D|-5-5-5-5-5-5-5-3-3-3-3-3-3-3-5-5-5-5-5-5-5-5-5-5-5-5-5-5-|
A|-3-3-3-3-3-3-3-3-3-3-3-3-3-3-3-3-3-3-3-3-3-5-5-5-5-5-5-5-|
E|---------------1-1-1-1-1-1-1---------------3-3-3-3-3-3-3-|
  Verse
e|-----------------------------------------------------------------|
B|-----------------------------------------------------------------|
G|-5-5---------5-5-----------------5-5---------5-5-----------------|
D|-5-5---3-3---5-5---5-5-5-5-5-5-5-5-5---3-3---5-5---5-5-5-5-5-5-5-|
A|-3-3---3-3---3-3---5-5-5-5-5-5-5-3-3---3-3---3-3---5-5-5-5-5-5-5-|
E|-------1-1---------3-3-3-3-3-3-3-------1-1---------3-3-3-3-3-3-3-|
  Pre chorus play x2
e|---------------------------------------------------------|
B|---------------------------------------------------------|
G|-----------------------------5-5-5-5-5-5-5---------------|
D|-7-7-7-7-7-7-7-3-3-3-3-3-3-3-5-5-5-5-5-5-5-5-5-5-5-5-5-5-|
A|-7-7-7-7-7-7-7-3-3-3-3-3-3-3-3-3-3-3-3-3-3-5-5-5-5-5-5-5-|
E|-5-5-5-5-5-5-5-1-1-1-1-1-1-1---------------3-3-3-3-3-3-3-|
  Chorus play x2
e|-----------------------------|
B|-----------------------------|
G|------10-10--5-5-5-5---------|
D|-5-5--10-10--5-5-5-5-5-5-5-5-|
A|-5-5---8--8--3-3-3-3-5-5-5-5-|
E|-3-3-----------------3-3-3-3-|
  Continued
e|-------------------------------------------|
B|-------------------------------------------|
G|-------------------------------------------|
D|-7-7-7-7-7-7-7-3-3-3-3-3-3-3-5-5-5-5-5-5-5-|
A|-7-7-7-7-7-7-7-3-3-3-3-3-3-3-5-5-5-5-5-5-5-|
E|-5-5-5-5-5-5-5-1-1-1-1-1-1-1-3-3-3-3-3-3-3-|
  Play x2
e|---------------------------------------------------------|
B|---------------------------------------------------------|
G|-5-5-5-5-5-5-5---------------5-5-5-5-5-5-5---------------|
D|-5-5-5-5-5-5-5-3-3-3-3-3-3-3-5-5-5-5-5-5-5-5-5-5-5-5-5-5-|
A|-3-3-3-3-3-3-3-3-3-3-3-3-3-3-3-3-3-3-3-3-3-5-5-5-5-5-5-5-|
E|---------------1-1-1-1-1-1-1---------------3-3-3-3-3-3-3-|
  Chorus play x2
e|-----------------------------|
B|-----------------------------|
G|------10-10--5-5-5-5---------|
D|-5-5--10-10--5-5-5-5-5-5-5-5-|
A|-5-5---8--8--3-3-3-3-5-5-5-5-|
E|-3-3-----------------3-3-3-3-|
  Continued
e|-------------------------------------------|
B|-------------------------------------------|
G|-------------------------------------------|
D|-7-7-7-7-7-7-7-3-3-3-3-3-3-3-5-5-5-5-5-5-5-|Pick
A|-7-7-7-7-7-7-7-3-3-3-3-3-3-3-5-5-5-5-5-5-5-|slide
E|-5-5-5-5-5-5-5-1-1-1-1-1-1-1-3-3-3-3-3-3-3-|
  Outro play x3
e|--------------------------------------------------------------|
B|--------------------------------------------------------------|
G|-5-5-5-5-5-5-5---------------7/9-9-9-9-9-9-9-10-7-7-7-7-7-7-7-|
D|-5-5-5-5-5-5-5-3-3-3-3-3-3-3-7/9-9-9-9-9-9-9-10-7-7-7-7-7-7-7-|
A|-3-3-3-3-3-3-3-3-3-3-3-3-3-3-5/7-7-7-7-7-7-7--8-5-5-5-5-5-5-5-|
E|---------------1-1-1-1-1-1-1----------------------------------|

e|---|
B|---|End on this
G|-5-|
D|-5-|
A|-3-|
E|---|

Thats it hope you enjoyed it i'll see ya later.

| /  slide up
| \  slide down
| h  hammer-on
| p  pull-off
| ~  vibrato
| +  harmonic
| x  Mute note
===============================================================================
Related for Jackass tab