Song name
# A B C D E F G H I J K L M N O P Q R S T U V W X Y Z

Vandals - Oi To The World tab

Help us improve GuitareTab! Take a short survey!
                             VANDALS
                         OI TO THE WORLD


STANDARD TUNING
EADGBe


bass intro repeated throughout whole song
----------------------------------|
----------------------------------|
------------------0-0-0-0-2-2-2-2-|
--0-0-0-0-4-4-4-4-----------------|


----------------------------------------------|
----------------------------------------------|
-------------2222-4444-----------2222-4444----|
---2222-6666-2222-4444-2222-6666-2222-4444----|
---2222-6666-0000-2222-2222-6666-0000-2222----|
---0000-4444-----------0000-4444--------------|


------------------------------|
------------------------------|
--9-8-6-4-6-4-2---------------|
--9-8-6-4-6-4-2-6-6/7-4-2-----|
--7-6-4-2-4-2-0-6-6/7-4-2-----|
----------------4-4/5-2-0-----|


these are played through the whole song
peace
Related for Oi To The World tab