Song name
# A B C D E F G H I J K L M N O P Q R S T U V W X Y Z

Vandals - Kick Me tab

From Sonny
Subject: Vandals, kick me

THE VANDALS
Kick Me
Live Fast Diarrhea
Tabbed by Sonny goround

Standard tuning

^ = Strum more than 3 times

Verse
-----

3:--9^--5--7--:
4:--9^--5--7--:
5:--7^--3--5--:

Pre-Chorus
----------

3:--9-9-9--14--7-7-7--12--11--7--:
4:--9-9-9--14--7-7-7--12--11--7--:
5:--7-7-7--12--5-5-5--10---9--5--:

Chorus
------

3:--9^--14^--14^--9^--:
4:--9^--14^--14^--9^--:
5:--7^--10^--12^--7^--:
Tap to rate this tab
# A B C D E F G H I J K L M N O P Q R S T U V W X Y Z