Song name
# A B C D E F G H I J K L M N O P Q R S T U V W X Y Z

Vandals - My Girlfriends Dead tab

Tabbed by:Gregor Fair
Email:gregorfair@hotmail.com

Tuning: standard 

        (palm muted)
e|---------------------------------------------------------------------------|
B|---------------------------------------------------------------------------|
G|---------------------------------------------------------------------------|
D|---3---3---3---3---3---3---3---3---3---3---3---3---3---3---3---3-----------|
A|-1---1---1---1---1---1---1---1---1---1---1---1---1---1---1---1-------------|
E|---------------------------------------------------------------------------|

   (Palm Muted) *= play 8 times  #= play 16 times
e|---------------------------------------------------------------------------|
B|---------------------------------------------------------------------------|
G|-3*----------7*--8*--10*---------------------------------------------------|
D|-3---3*--5*--5*--8---10--8#------------------------------------------------|
A|-1---3---5---5---6---8---8-------------------------------------------------|
E|-----1---3---------------6-------------------------------------------------|

   (palm muted) *= play 8 times  ()= not palm muted >>>=pick scrape #=play16x
e|---------------------------------------------------------------------------|
B|---------------------------------------------------------------------------|
G|-8*--10*--8*--10*----------------------------------------------------------|
D|-8---10---8---10---(8)*----------------------------------------------------|
A|-6---8----6---8----(8)-----------------------------------------------------|
E|-------------------(6)-----------------------------------------------------|
-
e|---------------------------------------------------------------------------|
B|-4-4-3-3-1-1---------1-1-1-1--4-4-3-3-1-1---------1-1-1-1------------------|
G|-------------3-3-2-3----------------------3-3-2-3--------------------------|
D|---------------------------------------------------------------------------|
A|---------------------------------------------------------------------------|
E|---------------------------------------------------------------------------|

e|---------------------------------------------------------------------------|
B|-4-4-3-3-1-1---------1-1-1-1-----------------------------------------------|
G|-------------3-3-2-3----------3-3-2-2-0-0----------------------------------|
D|------------------------------------------3-3-1-1-0-0----------------------|
A|------------------------------------------------------3-3-1-1--------------|
E|---------------------------------------------------------------------------|

  (some notes are palm muted and some are not) *= play 8 times #= play 16 times
e|---------------------------------------------------------------------------|
B|---------------------------------------------------------------------------|
G|---------------7*--8*--10*-------------------------------------------------|
D|-7-8*--3*--5*--7---8---10---8*---------------------------------------------|
A|-7-8---3---5---5---6---8----8----------------------------------------------|
E|-5-6---1---3----------------6----------------------------------------------|

e|---------------------------------------------------------------------------|
B|-4-4-3-3-1-1---------1-1-1-1--4-4-3-3-1-1---------1-1-1-1------------------|
G|-------------3-3-2-3----------------------3-3-2-3--------------------------|
D|---------------------------------------------------------------------------|
A|---------------------------------------------------------------------------|
E|---------------------------------------------------------------------------|

e|---------------------------------------------------------------------------|
B|-4-4-3-3-1-1---------1-1-1-1-----------------------------------------------|
G|-------------3-3-2-3----------3-3-2-2-0-0----------------------------------|
D|------------------------------------------3-3-1-1-0-0----------------------|
A|------------------------------------------------------3-3-1-1--------------|
E|---------------------------------------------------------------------------|

   ()= staccato notes *= play 4 times  #= play 8 times %=play 16 times
e|---------------------------------------------------------------------------|
B|---------------------------------------------------------------------------|
G|-(7)*-------(7)*--(7)*------8#--10#-------(7)*------(7)*-(7)*---8#--10#----|
D|-(7)---(7)*-(7)---(7)-------8---10---8%---(7)--(7)*-(7)--(7)----8---10--8%-|
A|-(5)---(7)--(5)---(5)-------6---8----8----(5)--(7)--(5)--(5)----6---8---8--|
E|-------(5)---------------------------6---------(5)----------------------6--|
--
e|---------------------------------------------------------------------------|
B|-4-4-3-3-1-1---------1-1-1-1--4-4-3-3-1-1---------1-1-1-1------------------|
G|-------------3-3-2-3----------------------3-3-2-3--------------------------|
D|---------------------------------------------------------------------------|
A|---------------------------------------------------------------------------|
E|---------------------------------------------------------------------------|

e|---------------------------------------------------------------------------|
B|-4-4-3-3-1-1---------1-1-1-1-----------------------------------------------|
G|-------------3-3-2-3----------3-3-2-2-0-0----------------------------------|
D|------------------------------------------3-3-1-1-0-0----------------------|
A|------------------------------------------------------3-3-1-1--------------|
E|---------------------------------------------------------------------------|

    first 16 notes palm muted second 16 not palm muted
e|---------------------------------------------------------------------------|
B|---------------------------------------------------------------------------|
G|---------------------------------------------------------------------------|
D|---3---3---3---3---3---3---3---3---3---3---3---3---3---3---3---3-----------|
A|-1---1---1---1---1---1---1---1---1---1---1---1---1---1---1---1-------------|
E|---------------------------------------------------------------------------|

            *= play 8 times
e|---------------------------------------------------------------------------|
B|---------------------------------------------------------------------------|
G|---------------7*--8*--10*-------------------------------------------------|
D|-7-8*--3*--5*--7---8---10---8*---------------------------------------------|
A|-7-8---3---5---5---6---8----8----------------------------------------------|
E|-5-6---1---3----------------6----------------------------------------------|

e|---------------------------------------------------------------------------|
B|-4-4-3-3-1-1---------1-1-1-1--4-4-3-3-1-1---------1-1-1-1------------------|
G|-------------3-3-2-3----------------------3-3-2-3--------------------------|
D|---------------------------------------------------------------------------|
A|---------------------------------------------------------------------------|
E|---------------------------------------------------------------------------|

e|---------------------------------------------------------------------------|
B|-4-4-3-3-1-1---------1-1-1-1-----------------------------------------------|
G|-------------3-3-2-3----------3-3-2-2-0-0----------------------------------|
D|------------------------------------------3-3-1-1-0-0----------------------|
A|------------------------------------------------------3-3-1-1--------------|
E|---------------------------------------------------------------------------|

e|---------------------------------------------------------------------------|
B|-4-4-3-3-1-1---------1-1-1-1--4-4-3-3-1-1---------1-1-1-1------------------|
G|-------------3-3-2-3----------------------3-3-2-3--------------------------|
D|---------------------------------------------------------------------------|
A|---------------------------------------------------------------------------|
E|---------------------------------------------------------------------------|

             v = vibrato
e|---------------------------------------------------------------------------|
B|-4-4-3-3-1-1---------1-----------------------------------------------------|
G|-------------3-3-2-3---3-2-3v----------------------------------------------|
D|---------------------------------------------------------------------------|
A|---------------------------------------------------------------------------|
E|---------------------------------------------------------------------------|
Tap to rate this tab
 
# A B C D E F G H I J K L M N O P Q R S T U V W X Y Z