Song name
# A B C D E F G H I J K L M N O P Q R S T U V W X Y Z

Vandals - Pirates Life tab

Pirate's Life by The Vandals
From Peace Thru Vandalism
Tabbed by chargerbandit
Tabbed 5.6.2011
Fixed up 23.7.2011

Great song with epic bass line,sounds good on guitar too..

(/) Slide Up  (\) Slide Down  (h) Hammer On  (p) Pull Off  (b) Bend (r) Release (v) 
Vibrato (l) Let ring


verse
E|-------------------------------------|
B|-------------------------------------|
G|-------------------------------------|
D|-----------77-99-----------10-10-9-9-|
A|--77777777755-77--7777777778--8--7-7-|
E|--555555555-------555555555----------|

verse2
E|--------------|
B|--------------|
G|--------------|
D|--------2--9--|
A|--7--5--2--7--|
E|--5--3--0-----|
play each chord a few times

bass solo
E|---------------------------------------------------------------------|
B|---------------------------------------------------------------------|
G|---------------------------------------------------------------------|
D|---------------------------------------------------------------------|
A|---------------4---------------------------------------------------2-|
E|-4-4-4-4-4-4-4---4-0-2-4--5-5-5-5-2-2-2-2-4-4-4-4-0-0-0-0-2-2-2-4-5--|

its a very easy solo,dont get confused by its lenght,its the same notes all over

ending
E|----------------|
B|----------------|
G|----------------|
D|-10-99-10-99----|
A|-8--77-8--77-7--|
E|-------------5--|


Structure:

verse a few times
verse2 - 2x
verse a few times
verse2 - 2x
bass solo - 2x
verse a few times
verse2 - 2x
ending
Tap to rate this tab
# A B C D E F G H I J K L M N O P Q R S T U V W X Y Z