Song name
# A B C D E F G H I J K L M N O P Q R S T U V W X Y Z

Vandals - Soccer Mom tab

INTRO/VERSE:(x=pm)

      x x     x x                x x x x        x x x x
E----------------------------7---5-5-5-5----5---7-7-7-7---7--|
A--7--7-7--7--7-7--7-7-7-7-6--------------7-------------9----|
D-----9-9--9--9-9--------------------------------------------|
G-----9-9--9--9-9--------------------------------------------|
B------------------------------------------------------------|
e------------------------------------------------------------|
    driving across the lawn...

PRE-CHORUS:
E-------------2222--5555-------------5555--7777--|
A--77777777---4444--7777---77777777--7777--9999--|
D--99999999---4444--7777---99999999--7777--9999--|
G--99999999----------------99999999--------------|
B------------------------------------------------|
e------------------------------------------------|
  my soccer mom, it's on...

CHORUS:
E----------------7----555555555555--|
A--777777777--6--9----777777777777--|
D--999999999--8--9----777777777777--| (2x)
G--999999999--8---------------------|
B-----------------------------------|
e-----------------------------------|
  pray to god that you're thinking...

FILLER 1:
E---------------------------------------------------------------9--7--|
A----7-6-7---7-6-7----7-6-7---7-6-7-----7-6-7---7-6-7-----7--6--------|
D--6---------------6-----------------6-----------------6--------------|
G---------------------------------------------------------------------|
B---------------------------------------------------------------------|
e---------------------------------------------------------------------|

VERSE 2(played the same)

PRE-CHORUS(played the same)

CHORUS(played the same)

FILLER 2:
E-------------------------------------------------------------------------|
A-------------------------------------------------------------------------|
D-------------------------------------------------------------------------|
G--13--11-9--8-6--4-4---13--11-9--8-6--4-4----13--11-9--8-6--4-4---6---9--|
B-------------------------------------------------------------------------|
e-------------------------------------------------------------------------|
   tell me i'm the one for you...

BRIDGE:
E-----------------------------------5555---7777--|
A--44444444---22222222---44444444---7777---9999--|
D--66666666---44444444---66666666---7777---9999--|
G--66666666---44444444---66666666----------------|
B------------------------------------------------|
e------------------------------------------------|
    and if it had to end...

FILLER 3:
E--------------------------------------------------------------|
A----7-6-7--7-6-7----7-6-7--7-6-7----7-6-7--7-6-7-----7--6--7--|
D--6--------------6---------------6----------------6-----------|
G--------------------------------------------------------------|
B--------------------------------------------------------------|
e--------------------------------------------------------------|

                                                               xxxx
E-----------------------------------------------------------9--7777--|
A----7-6-7--7-6-7----7-6-7--7-6-7----7-6-7--7-6-7-----7--6-----9999--|
D--6--------------6---------------6----------------6-----------9999--|
G--------------------------------------------------------------------|
B--------------------------------------------------------------------|
e--------------------------------------------------------------------|

CHORUS(played the same)

FILLER 4:
E-------------------------------------------------------|
A-------------------------------------------------------|
D-------------------------------------------------------|
G--13--11-9--8-6--4-4-(3x) -13--11-9--8-6--4--6--11--9--|
B-------------------------------------------------------|
e-------------------------------------------------------|
  tell me i'm the one for you... ..my soccer mom.

Song: SOCCER MOM
Written By: THE VANDALS
Tabbed By: YODER(comments/todrunktocare@hotmail.com)
Tap to rate this tab
 
# A B C D E F G H I J K L M N O P Q R S T U V W X Y Z