Song name
# A B C D E F G H I J K L M N O P Q R S T U V W X Y Z

Vandals - Eurobarge tab

Tabbed by-themanintheback
Email-fracture40@yahoo.com (include eurobarge tab or somehting like that in subject the 
if you have any corrections.)

tuning: Standard

Eurobarge solo tab
By The Vandals

Quick Note: I tabbed this on a 22 fret guitar,however the 22nd fret
is too small to be played. If you have a 24 fret guitar,
use one of the higher frets for the 21b's,or a whammy bar/pedal,
Also, this is my first solo tab, so it is probably nowhere near top notch. Is's good 
to help you play the song tho, which is important. Also, althought this tab may look hard, 
isn't very.


e-12-------------------------21b----17b--15--13h15p13-11-13----|
B--------------------8-----------------------------------------|
G------------------9-------------------------------------------|
D--------5b6----10-----10--------------------------------------|
A--------------------------------------------------------------|
E------5-------------------------------------------------------|

Continued:

e-17h18h19-19h20h21-21b--21b-|
B----------------------------|
G----------------------------|
D----------------------------|
A----------------------------|
E----------------------------|

Good Luck!

| /  slide up
| \  slide down
| h  hammer-on
| p  pull-off
| ~  vibrato
| +  harmonic
| x  Mute note
Tap to rate this tab
# A B C D E F G H I J K L M N O P Q R S T U V W X Y Z