Song name
# A B C D E F G H I J K L M N O P Q R S T U V W X Y Z

Vandals - So Long Farewell tab

SO LONG, FAREWELL - Vandals

By: Steven Nave lostsurfboards@yahoo.com

e|-------------------------
B|-------------------------
G|-------------------------
D|-----3-------------------
A|-3-----------------------
E|---1---------------------

e|-----------------------------------------------------
B|-----------------------------------------------------
G|-3---------------------------------------------------
D|-3--------Play your A# Scale here 2 octaves----------
A|-1---------------------------------------------------
E|-----------------------------------------------------

e|-----------------------------------------------------
B|-----------------------------------------------------
G|-3--/---8--------------------------------------------
D|-3--/---10-------------------------------------------
A|-1--/---10-------------------------------------------
E|-----------------------------------------------------

I cant figure out that weird little riff but I will
soon. Until then have fun !
Tap to rate this tab
# A B C D E F G H I J K L M N O P Q R S T U V W X Y Z