Guitaretab - guitar tabs
Song name
# A B C D E F G H I J K L M N O P Q R S T U V W X Y Z

Vandals - Cafe 405 tab

THE VANDALS-CAFE 405

intro/verse 
e|--------------------------------| 
B|--------------------------------| 
G|-9-9-7-6------------(-----6-7-)-| 
D|-9-9-7-6-9-7------7-(-7-7-6-7-)-| 
A|-7-7-5-4-9-7------7-(-7-7-4-5-)-| 
E|---------7-5------5-(-5-5-----)-| x3

chorus 
e|---------------------------------------------------------| 
B|---------------------------------------------------------| 
G|-7-7-7-7-7-7-7---------------4-4-4-4-4-4-4---------------| 
D|-7-7-7-7-7-7-7-4-4-4-4-4-4-4-4-4-4-4-4-4-4-7-7-7-7-7-7-7-| 
A|-5-5-5-5-5-5-5-4-4-4-4-4-4-4-2-2-2-2-2-2-2-7-7-7-7-7-7-7-| 
E|---------------2-2-2-2-2-2-2---------------5-5-5-5-5-5-5-| 

e|---------------------------------------------------------| 
B|---------------------------------------------------------| 
G|-7-7-7-7-7-7-7---------------4-4-4-4-4-4-4---------------| 
D|-7-7-7-7-7-7-7-4-4-4-4-4-4-4-4-4-4-4-4-4-4-2-2-2-2-2-2-2-| 
A|-5-5-5-5-5-5-5-4-4-4-4-4-4-4-2-2-2-2-2-2-2-2-2-2-2-2-2-2-| 
E|---------------2-2-2-2-2-2-2---------------0-0-0-0-0-0-0-| 
[ Tab from: http://www.guitaretab.com/v/vandals/48062.html ]
post chorus 
e|---------------|----------------------------| 
B|---------------|----------------------------| 
G|-------4-7-9---|-9-9-7-6----------------6-7-| 
D|-4-4-4-4-7-9---|---------9-7------7-7-7-6-7-| 
A|-4-4-4-2-5-7---|------------------7-7-7-4-5-| 
E|-2-2-2---------|------------------5-5-5-----| x3

bridge 
e|-------------| 
B|-------------| 
G|-------------| 
D|-3-3-5-5-7-7-| 
A|-3-3-5-5-7-7-| 
E|-1-1-2-2-5-5-| 

Solo 
e|---------------------------12-10-9------~17--------------------------------| 
B|-12-10-9------12-10-9--------------10-12----10-----------------------------| 
G|---------9-11---------9-11----------------------11-13-11----11-13-11-------| 
D|---------------------------------------------------------14----------14----| 
A|---------------------------------------------------------------------------| 
E|---------------------------------------------------------------------------| 

e|-20-------------------------------| 
B|----17------~17----------12-15----| 
G|------~19~17----12-12-12-------14-| 
D|----------------------------------| 
A|----------------------------------| 

Outro 
e|-----------| 
B|-----------| 
G|-----6-7---| 
D|-7-7-6-7-7-| 
A|-7-7-4-5-7-| 
E|-5-5-----5-| 

intro
verse x2
chorus  
post chorus 
verse x2
chorus X2 
solo
chorus X2
post chorus 
outro
Related for Cafe 405 tab
Cafe 405 chords by Vandals