Song name
# A B C D E F G H I J K L M N O P Q R S T U V W X Y Z

Vandals - Count To Ten tab

this is an unreleased song by the vandals but you can find it on punk rock is your friend sampler 4.

pm___  pm___  pm___  pm___  pm___  pm___
e-----------------------------------------------|
b-----------------------------------------------|
g-9-9-9---------7-7-7---------5-5-5--5-5-5--3-3-|
d-9-9-9--7-7-7--7-7-7--5-5-5--5-5-5--5-5-5--3-3-|
a-7-7-7--7-7-7--5-5-5--5-5-5--3-3-3--3-3-3--1-1-|
e--------5-5-5---------3-3-3--------------------|


e--------------------------------------------|
b--------------------------------------------|
g---13-11-------11-9-------11-9-9-8-8-9------|
d---------13-11-------11-9-------------  X 2-|
a--------------------------------------------|
E--------------------------------------------|

e--------------------------------------|
b--------------------------------------|
g--9-9-9-9-9-9-9-----------------------|
d--------------------------------------|
a--------------------------------------|
e--------------------------------------|


peace out and enjoy,

yours truly, chongee ?'s email me at surf_skate_4_life@hotmail.com
Tap to rate this tab
# A B C D E F G H I J K L M N O P Q R S T U V W X Y Z