Song name
# A B C D E F G H I J K L M N O P Q R S T U V W X Y Z

Vandals - Hitler Bad Vandals Good tab

                              VANDALS
                       HITLER BAD VANDALS GOOD

STANDARD TUNING
EADGBe


---------------------------------|
---------------------------------|
--7------------------------------|
--7------------------------------|x6
--5-xxxxxxxx---------------------|
-------------2h3p2h3p2h3p2-------|


-----------------------------------------------------|
-----------------------------------------------------|
--55555--55555--555555555555---7777---------7777-----|
--55555--55555--555555555555---7777---------7777-----|
--33333--33333--333333333333---5555---------5555-----|
------------------------------------2h3p2h3----------|


---------------------------------|
---------------------------------|
--7------------------------------|
--7------------------------------|x4
--5-xxxxxxxx---------------------|
-------------2h3p2h3p2h3p2-------|


--------------------------------------------------------|
--------------------------------------------------------|
--55555-55555-555555555555--55555-55555-555555555555----|
--55555-55555-555555555555--55555-55555-555555555555----|
--33333-33333-333333333333--33333-33333-333333333333----|
--------------------------------------------------------|


----------------------------------------------------------|
----------------------------------------------------------|
--7777---------7777---------7777---------7777-------------|
--7777---------7777---------7777---------7777-------------|
--5555---------5555---------5555---------5555-------------|
-------2h3p2h3------2h3p2h3------2h3p2h3------2h3p2h3-----|


--------------------------------|
--------------------------------|
---7777777777777777777777777----|
---7777777777777777777777777----|
---5555555555555555555555555----|
--------------------------------|


---------------------------------------------------------------------|
---------------------------------------------------------------------|
--55555--55555--555555555555---7777---------7777-7777---------7777---|
--55555--55555--555555555555---7777---------7777-7777---------7777---|
--33333--33333--333333333333---5555---------5555-5555---------5555---|
------------------------------------2h3p2h3-----------2h3p2h3--------|


-------------------------------------|
-------------------------------------|
---5/7777-5/7777-5/7777-77777777-----|
---x/xxxx-x/xxxx-x/xxxx-77777777-----|
---3/5555-3/5555-3/5555-55555555-----|
-------------------------------------|


---------------------------------------|
---------------------------------------|
--x-x-7-x---------x-x-7-x--------------|
--x-x-7-x---------x-x-7-x--------------|x4
--x-x-5-x---------x-x-5-x--------------|
----------2h3p2h3---------2h3p2--------|


------------------------------|
------------------------------|
--7---------------------------|
--7---------------------------|
--5-xxxxxxxx------------------|
-------------2h3p2h3p2h3p2----|

end on
------|
------|
--7---|
--7---|
--5---|
------|

thats it
easy song
peace
Tap to rate this tab
# A B C D E F G H I J K L M N O P Q R S T U V W X Y Z