Song name
# A B C D E F G H I J K L M N O P Q R S T U V W X Y Z

Vandals - Legend Of Pat Brown tab

----------------------------------------------------------------------------
			     The Vandals - Pat Brown
----------------------------------------------------------------------------

Tuning: Standard

Interlude
                                           let ring
e|------------------3----3----3----3-------7-------------------------------|
B|------------------3----3----3----3---------8-----------------------------|
G|---------------------------------------------7---------------------------|
D|-5-----------------------------------------------------------------------|
A|-5-----------------------------------------------------------------------|
E|-3-----------------------------------------------------------------------|

e|-------------------------1--0--------------------------------------------|
B|-------------------------1--0-------18b20r18-15-18-18-15~----------------|
G|-------------3-----------------------------------------------------------|
D|-3-5-5-5-5-5---5---------------------------------------------------------|
A|-------------------------------------------------------------------------|
E|-------------------------------------------------------------------------|

Guitar Solo

e|--------------------------------------------15b17-15---------------------|
B|-----------------------------------------------------18-17-15-17-17-18-17|
G|-5b7r5-3-5-3~--5-3-5b7--5-3-5-3-3----------------------------------------|
D|-----------------------------------5-3-5---------------------------------|
A|-------------------------------------------------------------------------|
E|-------------------------------------------------------------------------|


                            \               x2               /
e|---------------------------------15-15-------15-15-------15--------------|
B|15-------------------------18b20-------18b20-------18b20-----------------|
G|---17b19-17b19-15-17-15~-------------------------------------------------|
D|-------------------------------------------------------------------------|
A|-------------------------------------------------------------------------|
E|-------------------------------------------------------------------------|

                        
                        \ x8  /
e|-18b20-18-18b20-15-16-171615--18b20-18-15~-------------------------------|
B|-------------------------------------------------------------------------|
G|---------------------------------------12~-------------------------------|
D|-------------------------------------------------------------------------|
A|-------------------------------------------------------------------------|
E|---------------------------------------------3----5----7----8----10--8--7|

e|-------------------------------------------------------------------------|
B|-------------------------------------------------------------------------|
G|-------------------------------------------------------------------------|
D|-------------------------------------------------------------------------|
A|-------------------------------------------------------------------------|
E|--8--7--5--7--5--3--5--3~------------------------------------------------|
Tap to rate this tab
 
# A B C D E F G H I J K L M N O P Q R S T U V W X Y Z