Song name
# A B C D E F G H I J K L M N O P Q R S T U V W X Y Z

Vandals - Anarchy Burger tab

Other tabs had mistakes .. or they were out of key .. so i decided to do it myself ..

The Vandals - Anarchy Burger

Bass Intro:

E|--------------------------------------------------------------------------|
B|--------------------------------------------------------------------------|
G|--------------------------------------------------------------------------|
D|--------------------------------------------------------------------------|
A|-3-3-3--1--3-3-3--1-------------------------------------------------------|
E|---------------------3-3-3--1--3-3-3--1-----------------------------------|

Verse 1:
E|--------------------------------------------------------------------------|
B|--------------------------------------------------------------------------|
G|7-7-7--5--7-7-7--5--------------------------------------------------------|
D|5-5-5--5--7-7-7--5--7-7-7--5--7-7-7--5-----------------------------X2-----|
A|5-5-5--3--5-5-5--3--7-7-7--5--7-7-7--5------------------------------------|
E|--------------------5-5-5--3--5-5-5--3------------------------------------|

E|--------------------------------------------------------------------------|
B|--------------------------------------------------------------------------|
G|7-7-7-7-7-7-7-7-7-7-7-7-7-7-7-7-7-7-7-7-7-7-7-7-7-7-7-7-7-7-7-7-7-7-7-7-7-|
D|7-7-7-7-7-7-7-7-7-7-7-7-7-7-7-7-7-7-7-7-7-7-7-7-7-7-7-7-7-7-7-7-7-7-7-7-7-|
A|5-5-5-5-5-5-5-5-5-5-5-5-5-5-5-5-5-5-5-5-5-5-5-5-5-5-5-5-5-5-5-5-5-5-5-5-5-|
E|--------------------------------------------------------------------------|

E|--------------------------------------------------------------------------|
B|--------------------------------------------------------------------------|
G|7-7-X-X-7-7-X-X---------------------9-9-X-X-7-7-X-X-----------------------|
D|7-7-X-X-7-7-X-X-7-7-X-X-7-7-X-X--X2-9-9-X-X-7-7-X-X-----------------------|
A|5-5-X-X-5-5-X-X-7-7-X-X-7-7-X-X-----7-7-X-X-5-5-X-X-----------------------|
E|----------------5-5-X-X-5-5-X-X-------------------------------------------|

These are the only three riffs in the song .. its not very hard .. just ill give you the 
of figuring out the order .. not hard either .. but im too lazy .. hope you enjoy
greg ...
Tap to rate this tab
# A B C D E F G H I J K L M N O P Q R S T U V W X Y Z