Song name
# A B C D E F G H I J K L M N O P Q R S T U V W X Y Z

Vandals - Disproportioned Head tab

start with a C chord and let ring

INTRO(guitar 1)
E-----------3333--5555-----------333333----------3333--5555--111111--3333--|
A---333333--5555--7777---333333--555555--333333--5555--7777--333333--5555--|
D---555555--5555--7777---555555--555555--555555--5555--7777--333333--5555--|
G---555555---------------555555----------555555----------------------------|
B--------------------------------------------------------------------------|
e--------------------------------------------------------------------------|

INTRO(guitar 2)
E--------------------------------------------------------------------------|
A--------------------------------------------------------------------------|
D--------------------------------------------------7-s-9-------------------|
G--999999-s-4-s-9----999999-s-4----999999-s-4-s-9--------------------------|
B--------------------------------------------------------------------------|
e--------------------------------------------------------------------------|

VERSE(2x)
E----------33-5-----------33-5----11111111--33333333--------------------|
A---33333--55-7----33333--55-7----33333333--55555555--33-x-33-x-33-x-33-|
D---55555--55-7----55555--55-7----33333333--55555555--55-x-55-x-55-x-55-|
G---55555----------55555------------------------------55-x-55-x-55-x-55-|
B-----------------------------------------------------------------------|
e-----------------------------------------------------------------------|

CHORUS(1x)
E C A B
E--------------------------------------------------------|
A---7-7-7-7----3-3-3-3----0-0-0-0----2-2-2-2-------------|
D----9-9-9-9----5-5-5-5----2-2-2-2----4-4-4-4------------|
G----------------------------------------------(9)pinch--|
B--------------------------------------------------------|
e--------------------------------------------------------|

VERSE(2x)
CHORUS(2x)
INTRO(1x) stop on a LOW E chord and let ring
VERSE(2x) with the last little section repeated twice

Song: Disproportioned Head
Written By: The Vandals
Tabbed By: YODER (todrunktocare@hotmail.com)
Tap to rate this tab
# A B C D E F G H I J K L M N O P Q R S T U V W X Y Z