Song name
# A B C D E F G H I J K L M N O P Q R S T U V W X Y Z

Vandals - My Brain Tells My Body tab

INTRO:(uses an effect kinda like a wah-wah)
 E-----6-4-----------------------------------------------------------------|
 A-4-3---------------------------------------------------------------------|
 D-------------------------6(h)8----------------8-6------------------------|
 G--------6(h)8-6--3(h)5-3-------6-8-8(s)9-8-6----------------------6-6----|
 B--------------------------------------------------7-7-7-7-7--6--4--------|
 e-------------------------------------------------------------------------|

 VERSE 1:
    C#    A#    D#    G#
 E--------6666--------4444---------|
 A--4444--8888--6666--6666---------|  (2x)-the 2nd time through hold the
 D--6666--8888--8888--6666---------|       G# for an 8 count
 G--6666--------8888---------------|
 B---------------------------------|
 E---------------------------------|
    evertime i see her sweet face...

 BRIDGE:
    D#    G#    C#    A#     D#    G#    C#
 E--------4444--------6666---------4444------------------------------------|
 A--6666--6666--4444--8888---6666--6666--44444444--------------------------|
 D--8888--6666--6666--8888---8888--6666--66666666--------------------------|
 G--8888--------6666---------8888--------66666666--6h8-6-6h8-6-6h8-6-6h8-6-|
 B-------------------------------------------------------------------------|
 e-------------------------------------------------------------------------|
    but the sun it never lies...

 CHORUS:
    C#    A#    C#    A#    F#    G#    C#
 E--------6666--------6666--2222--4444-----------|
 A--4444--8888--4444--8888--4444--6666--44444444-|
 D--6666--8888--6666--8888--4444--6666--66666666-|
 G--6666--------6666--------------------66666666-|
 B-----------------------------------------------|
 e-----------------------------------------------|
    my brain tells my body...

 SOLO THING:
 E------------------------------------------------------------------------|
 A------------------------------------------------------------------------|
 D------------------------------------------------------------------3-----|
 G-6(h)8-6--6(h)8-6-8-8s10--6(h)8-6--6-6-6--5-5-5--3-3-3--1-1-1--1-----6--|
 B------------------------------------------------------------------------|
 e------------------------------------------------------------------------|

 SOLO THING CONTINUED:
 E--------------------------------------------------------------------------|
 A--------------------------------------------------------------------------|
 D--------------------------------------------PLAY THE INTRO----------8-6---|
 G---------------3----------------------------THEN ADD THIS-------6-5-------|
 B---4s6---6s4p2------------------14-11-14----BEFORE GOING------------------|
 e-------4-----------13--16-13-11-------------INTO THE BRIDGE---------------|

 --THIS IS EVERYTHING YOU NEED TO PLAY THE SONG
   JUST LISTEN TO IT TO GET THE CONFIGURATION
   IT'S PRETTY EASY--

 Song: MY BRAIN TELLS MY BODY
 Written By: The VANDALS
 Tabbed By: YODER(comments/todrunktocare@hotmail.com)
Tap to rate this tab
# A B C D E F G H I J K L M N O P Q R S T U V W X Y Z