Song name
# A B C D E F G H I J K L M N O P Q R S T U V W X Y Z

Vandals - 43210-1 tab

Help us improve GuitareTab! Take a short survey!
Intro:
E-------------------------------------------------------------|
A-------------------------10---9---7---5---4---2---0----555---|
D-7777-----------------------9---7---5---4---2---0---2--777---|
G------6-7777----------9--------------------------------777---|
B-------------7-8888-7----------------------------------------|
e-------------------------------------------------------------|
                                                        stop!
Bass part:
E------------------------------------------------------------------|
A------------------------------------------------------------------|
D-7---9-9--7-7--5-5--4-4--7-7--5-5--4-4--2-2--5-5--4-4--2-2--0-0---|
G------------------------------------------------------------------|
 Pretending, you're even having fun...

Verse:
E--------------------------------555555555 ------------------------------|
A-55-444-55-444-55-444-55-444----777777777------1010--9-9---77--55-------|
D-77-666-77-666-77-666-77-666----777777777------1212--1111--99--77-------|
G-77-666-77-666-77-666-77-666-------------------1212--1111--99--77-------|
B----(pm)--(pm)----(pm)--(pm)--------------------------------------------|
e------------------------------------------------------------------------|
  ass                     for once in your life..   pubic hair..

Chorus:
E-3333--5555--3333--5555--------55--33--55------55--33--55---|
A-5555--7777--5555--7777----55--77--55--77--55--77--55--77---|
D-5555--7777--5555--7777----77--77--55--77--77--77--55--77---|
G---------------------------77--------------77---------------|
B------------------------------------------------------------|
e------------------------------------------------------------|
  be that moron...         help your armpit fart..

E-----------------------------------------------------------------|
A-----------------------------------------------------------------|
D-----12----11-----9------7-----5-----4-----2----0----------------|
G--11-----9------7------5-----4-----2-----0------2----------------|
B-----------------------------------------------------------------|
e-----------------------------------------------------------------|
   karate chop..         good times will never stop.

Part before 2nd verse:
E------------------------------5------------------------------------|
A-------------------------------------------------------------------|
D-00-4-55-00-4-55-00-4-55-00-------00-4-55-00-4-55-00-4-55-00-------|
G--------------------------------------------------------pinch-(7)--|
B-------------------------------------------------------------------|
e-------------------------------------------------------------------|

Song Configuration:
Intro
Verse 1
Chorus
Verse 2
Chorus
Guitar Solo (the vandals guitarist has a weird style,
Just play a fast solo on the D chord and it'll sound good)
Verse 3
Chorus

Written By: The Vandals
Tabbed By: Yoder  (Corrections/Comments  www.todrunktocare@hotmail.com)

Visit www.directTABS.com for more free tablature!
Related for 43210-1 tab