Song name
# A B C D E F G H I J K L M N O P Q R S T U V W X Y Z

Vandaveer - Marianned Youve Done It Now tab

-------------------------------------------------------------------------------
			     MARIANNE YOU'VE DONE IT NOW - Vandaveer
-------------------------------------------------------------------------------
Tabbed by: hans
Email: hpviser@comcast.net

Tuning: normal

this is my first tab, so I didn't really bother showing how to strum. Just strum with
fingers, listen to the music, and don't be stupid. Also, I didn't show the order, but
only two major parts, so it's not that hard to figure out. Like I said, this is my first 
so let me know what you think.

e|-----3-3------------------3-3-----------------3-3-------------------------|
B|-----3-3-------5-5--------3-3--------7-7------3-3------5-5----------------|
G|-----0---------5-5--------0----------7-7------0--------5-5----------------|
D|-----0---------5----------0----------7--------0--------5------------------|
A|-----2-----/33------------2------/55----------2----/33-----5-5-3-3-1-1-0-0|
E|--3---------------------3------------------3------------------------------|

e|--------------------------------------------------------------------------|
B|--------------------------------------------------------------------------|
G|----3-2-----2-3-----3-5-7-5-3-2-----3-2-----2-3------3-2-3-5-3-2----------|
D|--------------------------------------------------------------------------|
A|--------------------------------------------------------------------------|
E|-3-3----1-1-----3-3-------------3-3-----1-1------3-3----------------------|

| /  slide up
| \  slide down
| h  hammer-on
| p  pull-off
| ~  vibrato
| +  harmonic
| x  Mute note
===============================================================================
Tap to rate this tab
 
# A B C D E F G H I J K L M N O P Q R S T U V W X Y Z