Song name
# A B C D E F G H I J K L M N O P Q R S T U V W X Y Z

Vanden Plas - Combien De Larmes tab

-------------------------------------------------------------------------------
			     Combien De Larmes - Vanden Plas
-------------------------------------------------------------------------------
Tabbed by:JohnJJalakahops
Email:mybestfriendisrapcat@hotmail.com

My first tab, yes I suck, there are no other options for this song.  I VERY much welcome 
your corrections.
I started to type the rhythm of repeating chords but I am incredibly lazy and you can 
put it together.  I LOVE this song but no one else knows it.

e|-0----0--0---0--------0------0-------0--------0----------------|
B|-10---10-10--8--------5------5-------1--------3----------------|
G|-9----9--9---7--------5------4-------0--------0----------------| X2
D|-10---10-10--9--------7------5-------3--------4----------------|
A|-0----0--0---0--------0------0-------3--------5----------------|
E|---------------------------------------------------------------|


e| ---1----3---3-------------------------------------------------|
B| ---1----3-------3---------------------------------------------|
G| ---2----4------------0----------------------------------------|
D| ---3----5-----------------------------------------------------|
A| ---3----5-----------------------------------------------------|
E| ---1----3-----------------------------------------------------|


e| --0----0-----0----------------0---------0-------0-------------|
B| --1----1-----3----------------1---------2-------2-------------|
G| --2----0-----0----------------2---------2(3?)---3-------------|
D| --2----2-----4----------------2---------0-------0-------------|
A| --0----3-----5----------------0-------------------------------|
E| --------------------------------------------------------------|

(best part at 2:31! deserves rhythm)
e| ----777--555--333/55--3----------------------------------------|
B| ----888--777--555/77--5----------------------------------------|
G| ----999--777--555/77--5----------------------------------------|
D| ---------------------------------------------------------------|
A| ---------------------------------------------------------------|
E| ---------------------------------------------------------------|


| /   slide up
| \   slide down
| h   hammer-on
| p   pull-off
| ~   vibrato
| +   harmonic
| x   Mute note
| b   Bend
| pb  Pre-bend
| br  Bend release
| pbr Pre-bend release
| brb Bend release bend

************************************
Tap to rate this tab
# A B C D E F G H I J K L M N O P Q R S T U V W X Y Z