Song name
# A B C D E F G H I J K L M N O P Q R S T U V W X Y Z

Vandenberg - Burning Heart tab

Help us improve GuitareTab! Take a short survey!
Hey, this is my first tab. Iit's not the whole song, but I'm pretty sure it's ok.

Intro
-----------------------------0-------------| 2x
--------------3----------------1-----------|
---------------------------------0---------|
-------2/4--------4/2--------------2-------|
--0---------------------0------------------|
-------------------------------------------|

---------------------------------------------------7--5----|
--------------3-----------5--3--1--3----1--0-------7--5----|
--------------------------x--x--x--x----x--x-------7--5----|
-------2/4--------4/2-----5--4--2--4----2--0---------------|
--0--------------------------------------------------------|
----------------------------------------------0------------|


Verse
---------------------------------0-------------| 2x
-----1----------3----------1---1---1---1-------|
-------0----------0----------0-------0---------|
---------2----------0--------------------------|
--0----------2----------3----------------------|
-----------------------------------------------|

----------5----------------0---------0-----7---5---|
------6-----6---6--------0---0-------0-----7---5---|
----5---5-----5--------2-------2-----1-----7---5---|
-0-------------------2-----------2---2-------------|
-------------------0-----------------2-------------|
-------------------------------------0-------------|


Chorus
--0----0---|-----0-----|-----0-----|-----0------|---0----0----|
--0----0---|-----5-----|-----0-----|-----0------|---0----0----|
--2----4---|-----5-----|-----3-----|-----0------|---2----4----|
--3----5---|-----5-----|-----5-----|-----2------|---3----5----|
--3----5---|-----3-----|-----5-----|-----2------|---3----5----|
--1----3---|-----3-----|-----3-----|-----0------|---1----3----|


Verse 2
---------------------------------------------------7--5----|
--------------3-----------5--3--1--3----1--0-------7--5----|
--------------------------x--x--x--x----x--x-------7--5----|
-------2/4--------4/2-----5--4--2--4----2--0---------------|
--0--------------------------------------------------------|
----------------------------------------------0------------|

---------------------------------0-------------| 2x
-----1----------3----------1---1---1---1-------|
-------0----------0----------0-------0---------|
---------2----------0--------------------------|
--0----------2----------3----------------------|
-----------------------------------------------|

----------5----------------0---------0-----7---5---|
------6-----6---6--------0---0-------0-----7---5---|
----5---5-----5--------2-------2-----1-----7---5---|
-0-------------------2-----------2---2-------------|
-------------------0-----------------2-------------|
-------------------------------------0-------------|
Related for Burning Heart tab