Song name
# A B C D E F G H I J K L M N O P Q R S T U V W X Y Z

Vandenberg - Burning Heart tab

Song: Burning Heart
Artist: Vandenberg
Album: Vandenberg

Tabbed by: Lun Hangsing
Mail me at: hangsingh@gmail.com

        I have been looking around the net for free tab of the
interlude that plays right before the solo and i could not find any.
Its rather confusing as there are about a million guitars playing at
once. so, here it is.
        As for the solo, i think there are plenty around though not
accurate, they are okay.

Interlude:

Guitar 1
|--5-------------7-8-7--------------8-10-8---8--7--5--3---|
|---------------------------------------------------------|
|---------------------------------------------------------|
|---------------------------------------------------------|
|---------------------------------------------------------|
|---------------------------------------------------------|

Guitar II
|---------------------------------------------------------|
|---------------------------------------------------------|
|--2-------------4-5-4--------------5-7-5----5--4--3------|
|-----------------------------------------------------5---|
|---------------------------------------------------------|
|---------------------------------------------------------|

Guitar III
|---------------------------------------------------------|
|---------------------------------------------------------|
|---------------------------------------------------------|
|--10------------12-14-12-----------14-15-14-14-12-10-9---|
|---------------------------------------------------------|
|---------------------------------------------------------|

Guitar IV
|--8-------------10-12-10-----------12-13-12-12-10-8--7---|
|---------------------------------------------------------|
|---------------------------------------------------------|
|---------------------------------------------------------|
|---------------------------------------------------------|
|---------------------------------------------------------|

Guitar V (Lead Distortion)
|-------17-16-17-----------12-11-12----------12-10-8--------------------|
|-------13-12-13-----------10-9--12----------13-12-10-12----------------|
|-----------------------------------------------------12----------------|
|--------------------------------------------------------14-------------|
|-----------------------------------------------------------------------|
|-----------------------------------------------------------------------|



Guitar 1,2,3&4
|---------------------------------------------------------|
|---------------------------------------------------------|
|---------------------------------------------------------|
|---------------------------------------------------------|
|---------------------------------------------------------|
|---------------------------------------------------------|

Guitar V (Lead Distortion)
|-10-12:-10-12----10----------12-10-------------------------------------|
|------- ------13----12-13-12-------13-12-13----------------------------|
|-------------------------------------------14--------------------------|
|-----------------------------------------------------------------------|
|-----------------------------------------------------------------------|
|-----------------------------------------------------------------------|



Guitar I
|--5-------------7-8-7--------------8-10-8---8--7--5--3---|
|---------------------------------------------------------|
|---------------------------------------------------------|
|---------------------------------------------------------|
|---------------------------------------------------------|
|---------------------------------------------------------|
Guitar II
|---------------------------------------------------------|
|---------------------------------------------------------|
|--2-------------4-5-4--------------5-7-5----5--4--3------|
|-----------------------------------------------------5---|
|---------------------------------------------------------|
|---------------------------------------------------------|

Guitar III
|---------------------------------------------------------|
|---------------------------------------------------------|
|---------------------------------------------------------|
|--10------------12-14-12-----------14-15-14-14-12-10-9---|
|---------------------------------------------------------|
|---------------------------------------------------------|

Guitar IV
|--8-------------10-12-10-----------12-13-12-12-10-8--7---|
|---------------------------------------------------------|
|---------------------------------------------------------|
|---------------------------------------------------------|
|---------------------------------------------------------|
|---------------------------------------------------------|

Guitar V (Lead)                                  ______
|-----12-10-12-------------10-8-10------------13-121312----------------|
|------------------------------------------------------15-13-12----17--|
|--------------------------------------------------------------14------|
|----------------------------------------------------------------------|
|----------------------------------------------------------------------|
|----------------------------------------------------------------------|

Solo Starts
Tap to rate this tab
 
# A B C D E F G H I J K L M N O P Q R S T U V W X Y Z