Guitaretab - guitar tabs
Song name
# A B C D E F G H I J K L M N O P Q R S T U V W X Y Z

Vanderveen - Weekend Full Of Weekends tab

----------------------------------------------------------------------------
		   WEEKEND FULL OF WEEKENDS - Vanderveen
----------------------------------------------------------------------------
Tabbed by: joseph matthias
Email: dj.skorpion@gmail.com

Tuning: Standard tuning (EADGBe)

Band website: http://www.vanderveenmusic.com/

Intro (rhythm) - 0:00
e|-------------------------------------------------------------------------|
B|-------------------------------------------------------------------------|
G|-------------------------------------------------------------------------|
D|-9-9-9-0-9-9-9---------9-9-9-0-9-9-9-------------------------------------|
A|-9-9-9-0-9-9-9---------9-9-9-0-9-9-9-------------------------------------|
E|-7-7-7-0-7-7-7-\5-5-5/-7-7-7-0-7-7-7-\5-5--------------------------------|

Intro/Chorus (rhythm) 2 - 0:04, 1:18, 2:22
e|-------------------------------------------------------------------------|
B|-------------------------------------------------------------------------|
G|-------------------------------------------------------------------------|
D|-9-9-9-x-9-9-999-\5-5-5-x-5-5-555-/7-7-7-x-7-7-777-/9-9-9-x-9-9-999------|
A|-9-9-9-x-9-9-999-\5-5-5-x-5-5-555-/7-7-7-x-7-7-777-/9-9-9-x-9-9-999------|
E|-7-7-7-x-7-7-777-\3-3-3-x-3-3-333-/5-5-5-x-5-5-555-/7-7-7-x-7-7-777------|
[ Tab from: http://www.guitaretab.com/v/vanderveen/81429.html ]
Intro (lead) - 0:04, 1:37, 3:41
e|-------------------------------------------------------------------------|
B|-------------------------------------------------------------------------|
G|-------------------------------------------------------------------------|
D|-------------------------------------------------------------------------|
A|-----5-7-7/10-9-7-9-----4-4/7-5-5-5-7-7/9~-------------------------------|
E|-7-9----------------5-7--------------------------------------------------|

Verse (rhythm/lead) - 0:23, 1:45      Pre-Chorus (rhythm/lead) - 1:00, 2:04, 3:02
e|------------------------------------|------------------------------------|
B|------------------------------------|------------------------------------|
G|------------------------------------|------------------------------------|
D|-9-9-9-9--5-5-5-5--7-7-7-7--9-9-9-9-|-5-5-5~--7-7-7~-(x4)----------------|
A|-9-9-9-9--5-5-5-5--7-7-7-7--9-9-9-9-|-5-5-5~--7-7-7~---------------------|
E|-7-7-7-7--3-3-3-3--5-5-5-5--7-7-7-7-|-3-3-3~--5-5-5~---------------------|

Bridge (rhythm) - 3:41
e|-------------------------------------------------------------------------|
B|-------------------------------------------------------------------------|
G|-------------------------------------------------------------------------|
D|-9-9-9-x-9-9-999-\7-7-7-x-7-7-777-\5-5-5-x-5-5-555-/7-7-7-x-7-7-777------|
A|-9-9-9-x-9-9-999-\7-7-7-x-7-7-777-\5-5-5-x-5-5-555-/7-7-7-x-7-7-777------|
E|-7-7-7-x-7-7-777-\5-5-5-x-5-5-555-\3-3-3-x-3-3-333-/5-5-5-x-5-5-555------|

Bridge (lead) - 3:41
e|-------------------------------------------------------------------------|
B|-------------------------------------------------------------------------|
G|-------------------------------------------------------------------------|
D|-9-9~--7-7~--5-5~--7-7~--(x2)--7-7-7-7-7-(till bridge)-------------------|
A|-9-9~--7-7~--5-5~--7-7~--------7-7-7-7-7---------------------------------|
E|-7-7~--5-5~--3-3~--5-5~--------5-5-5-5-5---------------------------------|

| /  slide up
| \  slide down
| h  hammer-on
| p  pull-off
| ~  vibrato
| +  harmonic
| x  Mute note
============================================================================
Advertisement will be closed in 10 seconds