Song name
# A B C D E F G H I J K L M N O P Q R S T U V W X Y Z

Vanessa Amorosi - Mr Mysterious tab

---------------------------------------------------------------------------
		                 Mr. Mysterious - Vanessa Amorosi
---------------------------------------------------------------------------

Tabbed by: georgia_grillz
Email: georgia_grillz@hotmail.com

Tuning: Standard

0:00 Intro
e|--------------------------------------------------------------|
B|--------------------------6-6-6-6-6-6-5-5-5-5-5-5-------------|
G|-5-5-5-5-5-5-2-2-2-2-2-2--------------------------------------|
D|--------------------------------------------------------------|
A|--------------------------------------------------------------|
E|--------------------------------------------------------------|

e|--------------------------------------------------------------|
B|--------------------------6-6-6-6-6-6-5-5-5-3-3-5-------------|
G|-5-5-5-5-5-5-2-2-2-2-2-2--------------------------------------|
D|--------------------------------------------------------------|
A|--------------------------------------------------------------|
E|--------------------------------------------------------------|

e|--------------------------------------------------------------|
B|--------------------------6-6-6-6-6-6-5-5-5-5-5-5-------------|
G|-5-5-5-5-5-5-2-2-2-2-2-2--------------------------------------|
D|--------------------------------------------------------------|
A|--------------------------------------------------------------|
E|--------------------------------------------------------------|

e|--------------------------------------------------------------|
B|-3-3-3-3-3-3-5-5-5-5-5-5-------------3-3-3-3-3-3--------------|
G|-------------------------5-5-5-5-5-5--------------------------|
D|--------------------------------------------------------------|
A|--------------------------------------------------------------|
E|--------------------------------------------------------------|

0:15 Chorus 1
Guitar 1
e|--------------------------------------------------------------| x3
B|--------------------------6-6-6-6-6-6-5-5-5-5-5-5-------------|
G|-5-5-5-5-5-5-2-2-2-2-2-2--------------------------------------|
D|--------------------------------------------------------------|
A|--------------------------------------------------------------|
E|--------------------------------------------------------------|

e|--------------------------------------------------------------|
B|-3-3-3-3-3-3-5-5-5-5-5-5-------------3-3-3-3-3-3--------------|
G|-------------------------5-5-5-5-5-5--------------------------|
D|--------------------------------------------------------------|
A|--------------------------------------------------------------|
E|--------------------------------------------------------------|

Guitar 2
e|--5-----1-----5-----1-----5-----1-----3-----3-------------|
B|--5-----1-----5-----1-----5-----1-----5-----3-------------|
G|--5-----2-----5-----2-----5-----2-----5-----4-------------|
D|--7-x4--3-x4--7-x4--3-x4--7-x4--3-x4--5-x4--5-x4----------|
A|--7-----3-----7-----3-----7-----3-----3-----5-------------|
E|--5-----1-----5-----1-----5-----1-----3-----3-------------|

0:32 Verse 1 - Listen to the tune and work out the timing

e|--5-----1-----3-----3----3-3-3-3-3-3---| x2
B|--5-----1-----5-----3----3-3-3-3-3-3---|
G|--5-----2-----5-----4----4-4-4-4-4-4---|
D|--7-x8--3-x8--5-x8--5-x6-5-5-5-5-5-5---|
A|--7-----3-----3-----5----5-5-5-5-5-5---|
E|--5-----1-----3-----3----3-3-3-3-3-3---|

1:03 Chorus 2 (same as chorus 1)

1:24 Verse 2 (same a verse 1)

1:55 Chorus 3 (same as chorus 1)

2:27 Break (no guitar)

3:03 Chorus 4 (same as chorus 1)

3:35 Outro
e|---------------------------------------------------| x3
B|-------------------------8-8-8-8-8-8-8-7-7-7-7-7-7-|
G|-7-7-7-7-7-7-4-4-4-4-4-4---------------------------|
D|---------------------------------------------------|
A|---------------------------------------------------|
E|---------------------------------------------------|

e|--------------------------------------------------|
B|-5-5-5-5-5-5-7-7-7-7-7-7-------------5-5-5-5-5-5--|
G|-------------------------7-7-7-7-7-7--------------|
D|--------------------------------------------------|
A|--------------------------------------------------|
E|--------------------------------------------------|
Tap to rate this tab
# A B C D E F G H I J K L M N O P Q R S T U V W X Y Z