Song name
# A B C D E F G H I J K L M N O P Q R S T U V W X Y Z

Vanessa Carlton - Swindler tab

         intro
 e|----------------------------|
 B|----------------------------|
 G|-4--4-4--4-4--4-4--4-4--4-4-|
 D|-4--4-4--4-4--4-4--4-4--4-4-|
 A|-6--6-5--5-4--5-6--6-5--5-4-|
 E|----------------------------|

                Chorus1
 //---------------x3----------------------\----------------------------------|
e|------------------------------------------|--------------------------------|
B|------------------------------------------|--------------------------------|
G|------------------------------------------|--------------------------------|
D|---2--2-----2--2------2--2-----2--2-------|---2--2-----2--2------2--2------|
A|--2--2--2--2--2-5-4--2--2--2--2--2--5-4---|--2--2--2--2--2-5-4--2--2--2----|
E|-3--3--3--5--5------2--2--2--3--3---------|-3--3--3--5--5------2--2--2--3--|


                                        verse
e|----------------|  e|--------------------------------------------------|
B|----------------|  B|--------------------------------------------------|
G|----------------|  G|-4--4-4------4--4~-4-4-----4-4~---4--4~~------4---|
D|--2--2-----0----|  D|-4--4-4-----4-4-4~-4-4----4--4~--4-4-4~~---4-4--4-|
A|-2--2--2--0--4--|  A|-6--6-5---5-----4~-5-6~--6---5~-5----4~~--7-4--4--|
E|---3-----3------|  E|-----------------------------------------6--------|

e|-----------------------------|         e|--------------------------------|
B|-----------------------------|         B|--------------------------------|
G|-4--4-4--4-4--4-4--4-4--4-4~-|Repeat   G|--------------------------------|
D|-4--4-4--4-4--4-4--4-4--4-4~-|chorus2x D|-2-2-2-2-2-2-2-2-2-2-2-2-2-2-2-2|
A|-6--6-5--5-4--5-6--6-5--5-4~-|   then  A|-2-2-2-2-2-2-2-2-2-2-2-2-2-2-2-2|
E|-----------------------------|         E|-3-3-3-3-3-3-3-3-5-5-5-5-5-5-5-5|

                             e|----------------------------------------------|
                             B|----------------------------------------------|
Then continue chorus at      G|----------------------------------------------|
                             D|---2--2-----2--2-------2--2-----2--2-------2--|
                             A|--2--2--2--2--2--5-4--2--2--2--2--2--5-4--2---|
                             E|-2--2--2--3--3-------3--3-3--5--5-------2--2--|

e|-----------|               e|---------|
B|-----------|               B|---------|
G|--2--------|  Repeat verse G|---------|
D|-2----0----|               D|---------|repeatChorus
A|-----0-4-2-|               A|-0-7-----|the way it is
E|----3------|               E|----7-8--|played the 2nd time.
repeat verse.
e|----------------------------------------------------|    |---0-0----0-0---|
B|-----5----5-------5---5-3-2----5--5-------5---5-3-2-|    |--0-0-0--0-0-32-|
G|-0-4--0-4--0-4-2-4-2-4-------4--4---5--0-4-0-4------||-0-0-0--2-2-----|
D|---------------------------4--4----4----------------|    |----------------|
A|----------------------------------------------------|    |----------------|
E|----------------------------------------------------|    |----------------|

e|---0-0-----0-0---|
B|--0-0-0---0-0-32-|
G|---------0-0-----|
D|-4-4-4-----------|x4    Repeat what needs to be repeated
A|-----------------|
E|-----------------|

             Ending x2                       then
e|---0--0-----0---0--0------------------0-----| e|---------------|
B|--0--0--0--0--0---0-4-2----0-0-2-0-2-4-4-2-0| B|-2-0-2-4---4-2-|
G|-0--0--0--2--2---2------0-2-2---------------| G|--------0-2----|
D|-----------------------4--------------------| D|---------------|
A|--------------------------------------------| A|---------------|
E|--------------------------------------------| E|---------------|
Tap to rate this tab
 
# A B C D E F G H I J K L M N O P Q R S T U V W X Y Z