Song name
# A B C D E F G H I J K L M N O P Q R S T U V W X Y Z

Vanessa Hudgens - Dont Ask Why tab

Don't Ask Why
Vanessa Hudgens

tabbed by L.J34N
08-11-08


STANDARD TUNING

CAPO ON 4TH FRET

INTRO...played throughout song 

e------------3-----3------7------7-------------------------|
B--0----3--------------------7-------------5-----5h6p5-----|
G----0----0----0---------------------------5----5------5---|
D----------------------------------------------------------|
A----------------------------------------------------------|
E--3----2----0---0---0----7---7----0-------8---5-----------|


e------------3-----3------------------------|
B--0----3------0----------7----7--------5---|
G----0----0-----------------6-----------5---|
D-------------------------------------------|
A-------------------------------------------|
E--3----2----0---0---0----7---7---0-----8---|


Please RATE &/or COMMENT.
Tap to rate this tab
# A B C D E F G H I J K L M N O P Q R S T U V W X Y Z