Song name
# A B C D E F G H I J K L M N O P Q R S T U V W X Y Z

Vanessa Williams - Constantly tab

yan 1st tab nang constantly! hehehe... and 1st time ko din mag post d2... welp, gudluck! 
hope this would help... vote nyo ah! sori nga pala if i didnt plug the lyrics in....

CONSTANTLY
vanessa williams
posted by:raf_fermin

intro:

--x--x--3------3---   --x--3--3-------3        --5--|
--6--6--3------3---   --6--3--3-------3        --5--|
--8--7--4------4---   --8--5--4-------4   (2x) --5--|
--------5------5---   -----5--5-------5        --5--|
--6--6--5------5---   --6--3--5-------5        --5--|
--x--x--3--3-3-3---   --x--x--3--3-3--3        --5--|

verse/refrain:
(mejo laruin nyo nlng ung strings/ and oweys kau magtatap para mas maganda)

--3----3----3-------1        ---3-----3----3----3---3-----3----3-5-|
--3----3----3-------1        ---3-----3----3----3---3-----3----3-5-|
--4----4----4----3--2  (2x)  ------------------------------------5-|
--5----3----5----3--3        ------------------------------------5-|
--5----5----3----1--3        --2--2-2----1--1-1---0----s2------3-5-|
--3----3----3-------1        --------------------------------------|

chorus:

---3-----3------3---3-----1--5--|
---3-----3-t----3---3-----1--5--|
-----------a-----------------5--|
-----------p-----------------5--| (2x)
--3--3-3------2--2-2--0-1----5--|
--------------------------------|

--x--x--3------3---   --x--3--3-------3        ----3-----3----3--5---------|
--6--6--3------3---   --6--3--3-------3        ---3----3-----3---5---------|
--8--7--4------4---   --8--5--4-------4   (2x) ------------------5---------| (chorus,
--------5------5---   -----5--5-------5        ------------------5  intro--|
--6--6--5------5---   --6--3--5-------5        --0--0s2----3-----5---------|
--x--x--3--3-3-3---   --x--x--3--3-3--3        ------------------5---------|


so did u guys get it? welp i hope so... email me for questions 
peace out guys...

----cutie mitchi is sungit-------- hehehehe
Tap to rate this tab
 
# A B C D E F G H I J K L M N O P Q R S T U V W X Y Z