Song name
# A B C D E F G H I J K L M N O P Q R S T U V W X Y Z

Vangelis - Blade Runner tab

Blade Runner Opening Theme
by Vangelis

Standard Tuning.
e  B  G  D  A  E


This is the main riff from the Blade Runner opening sequence. Best played with loads of 
reverb, echo, delay and some gain (if you can).


e|---------------------------------------|
B|----------7------(5)-------------------|
G|----9~~~-------6-------4~~~~~----------| x2
D|---------------------------------------|
A|---------------------------------------|
E|---------------------------------------|


e|------------------------------------------------------12~~~~----|
B|--------7--10---9p7h9~~----12~~--14--11~-----7--9-10-~~~~10~~~--|
G|----9~----------------------------------------------------------|
D|----------------------------------------------------------------|
A|----------------------------------------------------------------|
E|----------------------------------------------------------------|


Note: If you've got a trem bar (whammy bar) then use that to lower the pitch on the 
final note for a great effect.

Key: ~~ = let ring
     (x)= play note softly
      p = pull off
      h = hammer on
Tap to rate this tab
# A B C D E F G H I J K L M N O P Q R S T U V W X Y Z