Guitaretab - guitar tabs
Song name
# A B C D E F G H I J K L M N O P Q R S T U V W X Y Z

Vangelis - Chariots Of Fire tab

The original version of Chariots of Fire is C# major, but I've arranged this E major 
cause it's more suitable for regular E tuned guitar
The notes may not be 100 % to the original, but this is rather my own arrangement of the 
Enjoy! =)

Intro Thingie


|---------|-----|---------|-----|---------|------|
|---------|-----|---------|-----|---------|------|
|---------|-4---|---------|-4---|---------|-4----|
|------2--|-----|------2--|-----|------2--|------|
|---------|-----|---------|-----|-0-------|------|
|-0-------|-----|-0-------|-----|---------|-0----|
(something like this anyway)


part 1 (x2)

|-------------------|-------------------|-------------------|
|-------------------|-------------------|-------------------|
|-------------------|-------------------|-------------------|
|---------7--9-/11--|-9-------7--9-/11--|-9-------7--9-/11--|
|------7------------|------7------------|------7------------|
|-0-----------------|-0-----------------|-0-----------------|


|-----------|--------------------|------|
|-----------|--------------------|------|
|-----------|--------------------|------|
|-9----6----|------6--6h7-p6-----|------|
|-0---------|-----------------7--|-7----|
|-----------|-7-------7----------|-0----|

Part 2
[ Tab from: http://www.guitaretab.com/v/vangelis/45321.html ]
|-/12-11--------|-11--------------|-------/12-11--------|-11-----------|
|--------14-12--|-----12--14--12--|-12-----------14-12--|-----12--14---|
|---------------|-----------------|---------------------|--------------|
|---------------|-----------------|---------------------|--------------|
|---------------|-11------0-------|---------------------|-11------0----|
|---------------|-----------------|-0-------------------|--------------|


|-------/12-11--------|-11----------7--|-7---------------|------|
|--------------14-12--|-----12--14-----|----9-9h10-p9----|------|
|---------------------|----------------|--------------9--|-9----|
|---------------------|----------------|-----------------|------|
|---------------------|-11------0------|-----------------|------|
|-0-------------------|----------------|-7----(7)--------|-0----|

part 1 (octave higher)


|--------7--7h9--|-7-------/12-11-9--|-7------------7--7h9--|
|----10----------|-------------------|----------10----------|
|-9--------------|------9------------|-------9--------------|
|----------------|-------------------|----------------------|
|----------------|-------------------|----------------------|
|----------------|-0-----------------|-0--------------------|

|-7--------|-----------------|------|
|-----9----|----9-9h10-p9----|------|
|----------|--------------9--|-9----|
|----------|-----------------|------|
|-0--------|-----------------|------|
|----------|-7----(7)--------|-0----|
Related for Chariots Of Fire tab
×
Best way to learn
"Chariots Of Fire"